  0
SECTION
  2
HEADER
  9
$ACADVER
  1
AC1021
  9
$ACADMAINTVER
 70
    50
  9
$DWGCODEPAGE
  3
ANSI_932
  9
$LASTSAVEDBY
  1
DDK114935
  9
$INSBASE
 10
0.0
 20
0.0
 30
0.0
  9
$EXTMIN
 10
0.8876332595516416
 20
0.7816616714782077
 30
0.0
  9
$EXTMAX
 10
20.02790735508756
 20
11.02797348006525
 30
0.0
  9
$LIMMIN
 10
0.0
 20
0.0
  9
$LIMMAX
 10
420.0
 20
297.0
  9
$ORTHOMODE
 70
     0
  9
$REGENMODE
 70
     1
  9
$FILLMODE
 70
     1
  9
$QTEXTMODE
 70
     0
  9
$MIRRTEXT
 70
     0
  9
$LTSCALE
 40
1.0
  9
$ATTMODE
 70
     1
  9
$TEXTSIZE
 40
3.0
  9
$TRACEWID
 40
1.0
  9
$TEXTSTYLE
  7
STANDARD
  9
$CLAYER
  8
0
  9
$CELTYPE
  6
ByLayer
  9
$CECOLOR
 62
   256
  9
$CELTSCALE
 40
1.0
  9
$DISPSILH
 70
     0
  9
$DIMSCALE
 40
1.0
  9
$DIMASZ
 40
2.5
  9
$DIMEXO
 40
1.0
  9
$DIMDLI
 40
10.0
  9
$DIMRND
 40
0.0
  9
$DIMDLE
 40
0.0
  9
$DIMEXE
 40
1.0
  9
$DIMTP
 40
0.1
  9
$DIMTM
 40
0.1000000001
  9
$DIMTXT
 40
2.5
  9
$DIMCEN
 40
0.0
  9
$DIMTSZ
 40
0.0
  9
$DIMTOL
 70
     0
  9
$DIMLIM
 70
     0
  9
$DIMTIH
 70
     0
  9
$DIMTOH
 70
     0
  9
$DIMSE1
 70
     0
  9
$DIMSE2
 70
     0
  9
$DIMTAD
 70
     3
  9
$DIMZIN
 70
     8
  9
$DIMBLK
  1
Open30
  9
$DIMASO
 70
     1
  9
$DIMSHO
 70
     1
  9
$DIMPOST
  1

  9
$DIMAPOST
  1
"
  9
$DIMALT
 70
     0
  9
$DIMALTD
 70
     2
  9
$DIMALTF
 40
0.0393701
  9
$DIMLFAC
 40
1.0
  9
$DIMTOFL
 70
     1
  9
$DIMTVP
 40
0.0
  9
$DIMTIX
 70
     0
  9
$DIMSOXD
 70
     0
  9
$DIMSAH
 70
     0
  9
$DIMBLK1
  1

  9
$DIMBLK2
  1

  9
$DIMSTYLE
  2
AM_JIS
  9
$DIMCLRD
 70
   256
  9
$DIMCLRE
 70
   256
  9
$DIMCLRT
 70
     7
  9
$DIMTFAC
 40
0.71
  9
$DIMGAP
 40
1.0
  9
$DIMJUST
 70
     0
  9
$DIMSD1
 70
     0
  9
$DIMSD2
 70
     0
  9
$DIMTOLJ
 70
     0
  9
$DIMTZIN
 70
     8
  9
$DIMALTZ
 70
     0
  9
$DIMALTTZ
 70
     0
  9
$DIMUPT
 70
     0
  9
$DIMDEC
 70
     2
  9
$DIMTDEC
 70
     2
  9
$DIMALTU
 70
     2
  9
$DIMALTTD
 70
     2
  9
$DIMTXSTY
  7
STANDARD
  9
$DIMAUNIT
 70
     0
  9
$DIMADEC
 70
     0
  9
$DIMALTRND
 40
0.0
  9
$DIMAZIN
 70
     2
  9
$DIMDSEP
 70
    46
  9
$DIMATFIT
 70
     3
  9
$DIMFRAC
 70
     0
  9
$DIMLDRBLK
  1
Open30
  9
$DIMLUNIT
 70
     2
  9
$DIMLWD
 70
    -1
  9
$DIMLWE
 70
    -1
  9
$DIMTMOVE
 70
     0
  9
$DIMFXL
 40
1.0
  9
$DIMFXLON
 70
     0
  9
$DIMJOGANG
 40
0.7853981633974483
  9
$DIMTFILL
 70
     0
  9
$DIMTFILLCLR
 70
     0
  9
$DIMARCSYM
 70
     1
  9
$DIMLTYPE
  6

  9
$DIMLTEX1
  6

  9
$DIMLTEX2
  6

  9
$LUNITS
 70
     2
  9
$LUPREC
 70
     2
  9
$SKETCHINC
 40
1.0
  9
$FILLETRAD
 40
2.5
  9
$AUNITS
 70
     0
  9
$AUPREC
 70
     3
  9
$MENU
  1
.
  9
$ELEVATION
 40
0.0
  9
$PELEVATION
 40
0.0
  9
$THICKNESS
 40
0.0
  9
$LIMCHECK
 70
     0
  9
$CHAMFERA
 40
2.5
  9
$CHAMFERB
 40
2.5
  9
$CHAMFERC
 40
0.0
  9
$CHAMFERD
 40
0.0
  9
$SKPOLY
 70
     0
  9
$TDCREATE
 40
2459593.655439815
  9
$TDUCREATE
 40
2459593.280439815
  9
$TDUPDATE
 40
2459594.412175926
  9
$TDUUPDATE
 40
2459594.037175926
  9
$TDINDWG
 40
0.0056828704
  9
$TDUSRTIMER
 40
0.0056828704
  9
$USRTIMER
 70
     1
  9
$ANGBASE
 50
0.0
  9
$ANGDIR
 70
     0
  9
$PDMODE
 70
     0
  9
$PDSIZE
 40
0.0
  9
$PLINEWID
 40
0.0
  9
$SPLFRAME
 70
     0
  9
$SPLINETYPE
 70
     6
  9
$SPLINESEGS
 70
     8
  9
$HANDSEED
  5
25BB
  9
$SURFTAB1
 70
     6
  9
$SURFTAB2
 70
     6
  9
$SURFTYPE
 70
     6
  9
$SURFU
 70
     6
  9
$SURFV
 70
     6
  9
$UCSBASE
  2

  9
$UCSNAME
  2

  9
$UCSORG
 10
0.0
 20
0.0
 30
0.0
  9
$UCSXDIR
 10
1.0
 20
0.0
 30
0.0
  9
$UCSYDIR
 10
0.0
 20
1.0
 30
0.0
  9
$UCSORTHOREF
  2

  9
$UCSORTHOVIEW
 70
     0
  9
$UCSORGTOP
 10
0.0
 20
0.0
 30
0.0
  9
$UCSORGBOTTOM
 10
0.0
 20
0.0
 30
0.0
  9
$UCSORGLEFT
 10
0.0
 20
0.0
 30
0.0
  9
$UCSORGRIGHT
 10
0.0
 20
0.0
 30
0.0
  9
$UCSORGFRONT
 10
0.0
 20
0.0
 30
0.0
  9
$UCSORGBACK
 10
0.0
 20
0.0
 30
0.0
  9
$PUCSBASE
  2

  9
$PUCSNAME
  2

  9
$PUCSORG
 10
0.0
 20
0.0
 30
0.0
  9
$PUCSXDIR
 10
1.0
 20
0.0
 30
0.0
  9
$PUCSYDIR
 10
0.0
 20
1.0
 30
0.0
  9
$PUCSORTHOREF
  2

  9
$PUCSORTHOVIEW
 70
     0
  9
$PUCSORGTOP
 10
0.0
 20
0.0
 30
0.0
  9
$PUCSORGBOTTOM
 10
0.0
 20
0.0
 30
0.0
  9
$PUCSORGLEFT
 10
0.0
 20
0.0
 30
0.0
  9
$PUCSORGRIGHT
 10
0.0
 20
0.0
 30
0.0
  9
$PUCSORGFRONT
 10
0.0
 20
0.0
 30
0.0
  9
$PUCSORGBACK
 10
0.0
 20
0.0
 30
0.0
  9
$USERI1
 70
     0
  9
$USERI2
 70
     0
  9
$USERI3
 70
     0
  9
$USERI4
 70
     0
  9
$USERI5
 70
     0
  9
$USERR1
 40
0.0
  9
$USERR2
 40
0.0
  9
$USERR3
 40
0.0
  9
$USERR4
 40
0.0
  9
$USERR5
 40
0.0
  9
$WORLDVIEW
 70
     1
  9
$SHADEDGE
 70
     3
  9
$SHADEDIF
 70
    70
  9
$TILEMODE
 70
     1
  9
$MAXACTVP
 70
    64
  9
$PINSBASE
 10
0.0
 20
0.0
 30
0.0
  9
$PLIMCHECK
 70
     0
  9
$PEXTMIN
 10
1.000000000000000E+20
 20
1.000000000000000E+20
 30
1.000000000000000E+20
  9
$PEXTMAX
 10
-1.000000000000000E+20
 20
-1.000000000000000E+20
 30
-1.000000000000000E+20
  9
$PLIMMIN
 10
0.0
 20
0.0
  9
$PLIMMAX
 10
420.0
 20
297.0
  9
$UNITMODE
 70
     0
  9
$VISRETAIN
 70
     1
  9
$PLINEGEN
 70
     0
  9
$PSLTSCALE
 70
     1
  9
$TREEDEPTH
 70
  3020
  9
$CMLSTYLE
  2
Standard
  9
$CMLJUST
 70
     0
  9
$CMLSCALE
 40
20.0
  9
$PROXYGRAPHICS
 70
     1
  9
$MEASUREMENT
 70
     1
  9
$CELWEIGHT
370
    -1
  9
$ENDCAPS
280
     0
  9
$JOINSTYLE
280
     0
  9
$LWDISPLAY
290
     0
  9
$INSUNITS
 70
     4
  9
$HYPERLINKBASE
  1

  9
$STYLESHEET
  1
MONOCHROME.CTB
  9
$XEDIT
290
     1
  9
$CEPSNTYPE
380
     0
  9
$PSTYLEMODE
290
     1
  9
$FINGERPRINTGUID
  2
{68D02915-48E6-F84F-B2EC-AC71938ABB10}
  9
$VERSIONGUID
  2
{F33F2679-234F-5849-9E44-E257F9534AE0}
  9
$EXTNAMES
290
     1
  9
$PSVPSCALE
 40
0.0
  9
$OLESTARTUP
290
     0
  9
$SORTENTS
280
   127
  9
$INDEXCTL
280
     0
  9
$HIDETEXT
280
     1
  9
$XCLIPFRAME
290
     0
  9
$HALOGAP
280
     0
  9
$OBSCOLOR
 70
   257
  9
$OBSLTYPE
280
     0
  9
$INTERSECTIONDISPLAY
280
     0
  9
$INTERSECTIONCOLOR
 70
   257
  9
$DIMASSOC
280
     2
  9
$PROJECTNAME
  1

  9
$CAMERADISPLAY
290
     0
  9
$LENSLENGTH
 40
50.0
  9
$CAMERAHEIGHT
 40
0.0
  9
$STEPSPERSEC
 40
2.0
  9
$STEPSIZE
 40
6.0
  9
$3DDWFPREC
 40
2.0
  9
$PSOLWIDTH
 40
0.25
  9
$PSOLHEIGHT
 40
4.0
  9
$LOFTANG1
 40
1.570796326794896
  9
$LOFTANG2
 40
1.570796326794896
  9
$LOFTMAG1
 40
0.0
  9
$LOFTMAG2
 40
0.0
  9
$LOFTPARAM
 70
     7
  9
$LOFTNORMALS
280
     1
  9
$LATITUDE
 40
37.795
  9
$LONGITUDE
 40
-122.394
  9
$NORTHDIRECTION
 40
0.0
  9
$TIMEZONE
 70
 -8000
  9
$LIGHTGLYPHDISPLAY
280
     1
  9
$TILEMODELIGHTSYNCH
280
     1
  9
$CMATERIAL
347
9BC
  9
$SOLIDHIST
280
     1
  9
$SHOWHIST
280
     1
  9
$DWFFRAME
280
     2
  9
$DGNFRAME
280
     0
  9
$REALWORLDSCALE
290
     1
  9
$INTERFERECOLOR
 62
     1
  9
$INTERFEREOBJVS
345
9C9
  9
$INTERFEREVPVS
346
2169
  9
$CSHADOW
280
     0
  9
$SHADOWPLANELOCATION
 40
0.0
  0
ENDSEC
  0
SECTION
  2
CLASSES
  0
CLASS
  1
ACDBDICTIONARYWDFLT
  2
AcDbDictionaryWithDefault
  3
ObjectDBX Classes
 90
        0
 91
        1
280
     0
281
     0
  0
CLASS
  1
TABLESTYLE
  2
AcDbTableStyle
  3
ObjectDBX Classes
 90
     4095
 91
        1
280
     0
281
     0
  0
CLASS
  1
AMGSETTINGSOBJ
  2
AmgSettingsObj
  3
"AcadM|Product Description: AutoCAD Mechanical|Company: Autodesk, Inc."
 90
     1024
 91
        2
280
     0
281
     0
  0
CLASS
  1
ACME_DOCUMENT
  2
AcMeDbDoc
  3
AcMeServices
 90
     1024
 91
        1
280
     0
281
     0
  0
CLASS
  1
ACMESCOPE
  2
AcMeScope
  3
AcMeServices
 90
     1024
 91
        1
280
     0
281
     0
  0
CLASS
  1
ACMECOMMANDHISTORY
  2
AcMeCommandHistory
  3
AcMeServices
 90
     1024
 91
        1
280
     0
281
     0
  0
CLASS
  1
ACIMSYSVARMAN
  2
AcImSysVarManager
  3
AcMeServices
 90
     1024
 91
        3
280
     0
281
     0
  0
CLASS
  1
ACIMINTSYSVAR
  2
AcImIntSysVar
  3
AcMeServices
 90
     1024
 91
        2
280
     0
281
     0
  0
CLASS
  1
ACMEDRAWINGMAN
  2
AcMeDrawingMan
  3
AcMeServices
 90
     1024
 91
        0
280
     0
281
     0
  0
CLASS
  1
ACMEVIEW
  2
AcMeView
  3
AcMeServices
 90
     1024
 91
        0
280
     0
281
     0
  0
CLASS
  1
ACDBENTITYCACHE
  2
AcMeEntityCache
  3
AcMeServices
 90
     1024
 91
        1
280
     0
281
     0
  0
CLASS
  1
GSMANAGER
  2
AcMeGSManager
  3
AcMeServices
 90
        0
 91
        0
280
     0
281
     0
  0
CLASS
  1
AMDTINTERNALREACTOR
  2
AmdtInternalReactor
  3
AcMeServices
 90
     1024
 91
        0
280
     0
281
     0
  0
CLASS
  1
ACMESTATEMGR
  2
AcMeStateMgr
  3
AcMeServices
 90
     1024
 91
        1
280
     0
281
     0
  0
CLASS
  1
ACGREFMASTER
  2
AcGrefMaster
  3
AcAttribServices
 90
     1024
 91
        1
280
     0
281
     0
  0
CLASS
  1
AM_DRAWING_MGR
  2
AcDmDwgMgr
  3
AcMechDwgViewMgmt
 90
     1024
 91
        0
280
     0
281
     0
  0
CLASS
  1
AM_DWG_DOCUMENT
  2
AcDmDwgDocument
  3
AcMechDwgViewMgmt
 90
     1024
 91
        0
280
     0
281
     0
  0
CLASS
  1
AM_DWG_SHEET
  2
AcDmSheet
  3
AcMechDwgViewMgmt
 90
     1024
 91
        0
280
     0
281
     0
  0
CLASS
  1
AM_VIEWDIMPARMAP
  2
AcDmViewDimParMap
  3
AcMechDwgViewMgmt
 90
     1024
 91
        0
280
     0
281
     0
  0
CLASS
  1
ACIMREALSYSVAR
  2
AcImRealSysVar
  3
AcMeServices
 90
     1024
 91
        0
280
     0
281
     0
  0
CLASS
  1
AM_DWGMGR_NAME
  2
AcDmDwgMgrName
  3
AcMechDwgViewMgmt
 90
     1024
 91
        0
280
     0
281
     0
  0
CLASS
  1
ACME_DATABASE
  2
AcMeDbDatabase
  3
AcMeServices
 90
     1024
 91
        1
280
     0
281
     0
  0
CLASS
  1
ACRFINSADJUSTERMGR
  2
AcRfInsAdjusterMgr
  3
AcMeServices
 90
     1024
 91
        1
280
     0
281
     0
  0
CLASS
  1
ACGREFACADMASTER
  2
AcGrefacadMaster
  3
AcGrefServices
 90
     1024
 91
        1
280
     0
281
     0
  0
CLASS
  1
AMDTMENUSTATEMGR
  2
AmdtMenuStateMgr
  3
McadcomServices
 90
     1024
 91
        1
280
     0
281
     0
  0
CLASS
  1
AMDTMCOMMENUSTATE
  2
AmdtMcomMenuState
  3
McadcomServices
 90
     1024
 91
        1
280
     0
281
     0
  0
CLASS
  1
AMIMASTER
  2
AmiMaster
  3
AmiServices
 90
     1024
 91
        1
280
     0
281
     0
  0
CLASS
  1
MAPIAMMOUDLE
  2
MApiAmModule
  3
MApiAmServices
 90
     1024
 91
        1
280
     0
281
     0
  0
CLASS
  1
ACIMSTRSYSVAR
  2
AcImStrSysVar
  3
AcMeServices
 90
     1024
 91
        5
280
     0
281
     0
  0
CLASS
  1
AMDTADMENUSTATE
  2
AmdtAdMenuState
  3
DesignerServices
 90
        0
 91
        0
280
     0
281
     0
  0
CLASS
  1
ADAPPL
  2
AcAdAppl
  3
DesignerAssemblies
 90
     1024
 91
        0
280
     0
281
     0
  0
CLASS
  1
DEPMGR
  2
AcAdDepMgr
  3
DesignerAssemblies
 90
     1024
 91
        0
280
     0
281
     0
  0
CLASS
  1
PARAMMGR
  2
AcAdParamMgr
  3
DesignerAssemblies
 90
     1024
 91
        0
280
     0
281
     0
  0
CLASS
  1
PARAMSCOPE
  2
AcAdParamScope
  3
DesignerAssemblies
 90
     1024
 91
        0
280
     0
281
     0
  0
CLASS
  1
NAMEDAPPL
  2
AcAdNamedAppl
  3
DesignerAssemblies
 90
     1024
 91
        0
280
     0
281
     0
  0
CLASS
  1
AMDTDMMENUSTATE
  2
AmdtDmMenuState
  3
AcMechDwgViewMgmt
 90
        0
 91
        0
280
     0
281
     0
  0
CLASS
  1
AMDTAMMENUSTATE
  2
AmdtAmMenuState
  3
DesignerAssemblies_arx
 90
     1024
 91
        1
280
     0
281
     0
  0
CLASS
  1
ACAMPROJECT
  2
AcAmProject
  3
DesignerAssemblies
 90
     1024
 91
        1
280
     0
281
     0
  0
CLASS
  1
ACAMGRCOMPDEF
  2
AcAmGrCompDef
  3
DesignerAssemblies
 90
     1024
 91
        1
280
     0
281
     0
  0
CLASS
  1
ACCMCONTEXT
  2
AcCmContext
  3
DesignerAssemblies
 90
     1024
 91
        0
280
     0
281
     0
  0
CLASS
  1
ACAMCOMPDEF
  2
AcAmCompDef
  3
DesignerAssemblies
 90
     1024
 91
        1
280
     0
281
     0
  0
CLASS
  1
ACAMCOMPDEFMGR
  2
AcAmCompDefMgr
  3
DesignerAssemblies
 90
     1024
 91
        1
280
     0
281
     0
  0
CLASS
  1
AMCONTEXTMGR
  2
AcAmContextMgr
  3
DesignerAssemblies
 90
     1024
 91
        1
280
     0
281
     0
  0
CLASS
  1
ACAMCONTEXTMODELER
  2
AcAmContextModeler
  3
DesignerAssemblies
 90
     1024
 91
        1
280
     0
281
     0
  0
CLASS
  1
ACMDATADICTIONARY
  2
AcmDataDictionary
  3
"AcmSymBB|Product Description: AutoCAD Mechanical|Company: Autodesk, Inc."
 90
     1024
 91
        1
280
     0
281
     0
  0
CLASS
  1
ACMSTANDARDISO
  2
AcmStandardISO
  3
"Amdt_StdImp|Product Description: AutoCAD Mechanical|Company: Autodesk, Inc."
 90
     1024
 91
        1
280
     0
281
     0
  0
CLASS
  1
AMGOBJPROPCFG
  2
AmgObjPropCfg
  3
"AmgLay|Product Description: AutoCAD Mechanical|Company: Autodesk, Inc."
 90
     1024
 91
        1
280
     0
281
     0
  0
CLASS
  1
AMDTEDGESTANDARDISO13715
  2
AmdtEdgeStdISO13715
  3
"Amdt_StdImp|Product Description: AutoCAD Mechanical|Company: Autodesk, Inc."
 90
     1024
 91
        1
280
     0
281
     0
  0
CLASS
  1
ACMSURFSTANDARDISO
  2
AcmSurfTextStdISO
  3
"Amdt_StdImp|Product Description: AutoCAD Mechanical|Company: Autodesk, Inc."
 90
     1024
 91
        0
280
     0
281
     0
  0
CLASS
  1
ACMFCFSTANDARDISO
  2
AcmFCFStdISO
  3
"Amdt_StdImp|Product Description: AutoCAD Mechanical|Company: Autodesk, Inc."
 90
     1024
 91
        0
280
     0
281
     0
  0
CLASS
  1
ACMWELDSTANDARDISO
  2
AcmWeldingStdISO
  3
"Amdt_StdImp|Product Description: AutoCAD Mechanical|Company: Autodesk, Inc."
 90
     1024
 91
        1
280
     0
281
     0
  0
CLASS
  1
ACMIDSTANDARDISO
  2
AcmIdStdISO
  3
"Amdt_StdImp|Product Description: AutoCAD Mechanical|Company: Autodesk, Inc."
 90
     1024
 91
        0
280
     0
281
     0
  0
CLASS
  1
ACMDATUMSTANDARDISO
  2
AcmDatumStdISO
  3
"Amdt_StdImp|Product Description: AutoCAD Mechanical|Company: Autodesk, Inc."
 90
     1024
 91
        0
280
     0
281
     0
  0
CLASS
  1
ACMBOMSTANDARDISO
  2
AcmBOMStdISO
  3
"Amdt_StdImp|Product Description: AutoCAD Mechanical|Company: Autodesk, Inc."
 90
     1024
 91
        1
280
     0
281
     0
  0
CLASS
  1
ACMDETAILSTANDARDISO
  2
AmdtDetailSymStdISO
  3
"Amdt_StdImp|Product Description: AutoCAD Mechanical|Company: Autodesk, Inc."
 90
     1024
 91
        1
280
     0
281
     0
  0
CLASS
  1
ACMSECTIONSTANDARDISO
  2
AmdtSectionSymStdISO
  3
"Amdt_StdImp|Product Description: AutoCAD Mechanical|Company: Autodesk, Inc."
 90
     1024
 91
        0
280
     0
281
     0
  0
CLASS
  1
ACMCENTERLINESTANDARDISO
  2
AmdtCenterLineStdISO
  3
"Amdt_StdImp|Product Description: AutoCAD Mechanical|Company: Autodesk, Inc."
 90
     1024
 91
        1
280
     0
281
     0
  0
CLASS
  1
ACMTHREADLINESTANDARDISO
  2
AmdtThreadLineStdISO
  3
"Amdt_StdImp|Product Description: AutoCAD Mechanical|Company: Autodesk, Inc."
 90
     1024
 91
        1
280
     0
281
     0
  0
CLASS
  1
ACMNOTESTANDARDISO
  2
AmdtNoteStdISO
  3
"Amdt_StdImp|Product Description: AutoCAD Mechanical|Company: Autodesk, Inc."
 90
     1024
 91
        1
280
     0
281
     0
  0
CLASS
  1
AMDTNOTETEMPLATEDB
  2
AmdtNoteTemplateDB
  3
"AcmSymBB" "Product Description: AutoCAD Mechanical|Company: Autodesk, Inc."
 90
     1024
 91
        7
280
     0
281
     0
  0
CLASS
  1
ACAMGLAYSTD
  2
AcAmgLayStd
  3
"AmgLay|Product Description: AutoCAD Mechanical|Company: Autodesk, Inc."
 90
     1024
 91
        1
280
     0
281
     0
  0
CLASS
  1
ACAMGDIMSTD
  2
AcAmgDimStd
  3
"AmgDim|Product Description: AutoCAD Mechanical|Company: Autodesk, Inc."
 90
     1024
 91
        1
280
     0
281
     0
  0
CLASS
  1
ACAMGHOLECHARTSTDISO
  2
AcAmgHoleChartStdISO
  3
"AmgDim" "Product Description: AutoCAD Mechanical|Company: Autodesk, Inc."
 90
     1024
 91
        1
280
     0
281
     0
  0
CLASS
  1
ACAMGTITLESTD
  2
AcAmgTitleStd
  3
"AmgTitle|Product Description: AutoCAD Mechanical|Company: Autodesk, Inc."
 90
     1024
 91
        1
280
     0
281
     0
  0
CLASS
  1
CATALOGSTATE
  2
AcAmCatalogState
  3
DesignerAssemblies_arx
 90
     1024
 91
        0
280
     0
281
     0
  0
CLASS
  1
ACAMGRCOMPDEFSET
  2
AcAmGrCompDefSet
  3
DesignerAssemblies
 90
     1024
 91
        1
280
     0
281
     0
  0
CLASS
  1
AMDTBROWSERDBTAB
  2
AmdtBrowserDbTab
  3
McadcomServices
 90
     1024
 91
        1
280
     0
281
     0
  0
CLASS
  1
CBROWSERAPPOBJECT
  2
CBrowserAppObject
  3
McadcomServices
 90
     1024
 91
        2
280
     0
281
     0
  0
CLASS
  1
DM_PLACEHOLDER
  2
AcDmSelsetPlaceholder
  3
McadcomServices
 90
     1024
 91
        1
280
     0
281
     0
  0
CLASS
  1
ACAMGFILTERDAT
  2
AcAmgFilterDat
  3
"AcadM|Product Description: AutoCAD Mechanical|Company: Autodesk, Inc."
 90
     1024
 91
        0
280
     0
281
     0
  0
CLASS
  1
DICTIONARYVAR
  2
AcDbDictionaryVar
  3
ObjectDBX Classes
 90
        0
 91
        9
280
     0
281
     0
  0
CLASS
  1
ACMSTANDARDJIS
  2
AcmStandardJIS
  3
"Amdt_StdImp|Product Description: AutoCAD Mechanical|Company: Autodesk, Inc."
 90
     1024
 91
        0
280
     0
281
     0
  0
CLASS
  1
ACMSURFSTANDARDJIS
  2
AcmSurfTextStdJIS
  3
"Amdt_StdImp|Product Description: AutoCAD Mechanical|Company: Autodesk, Inc."
 90
     1024
 91
        0
280
     0
281
     0
  0
CLASS
  1
ACMFCFSTANDARDJIS98
  2
AcmFCFStdJIS98
  3
"Amdt_StdImp|Product Description: AutoCAD Mechanical|Company: Autodesk, Inc."
 90
     1024
 91
        0
280
     0
281
     0
  0
CLASS
  1
ACMWELDSTANDARDJIS
  2
AcmWeldingStdJIS
  3
"Amdt_StdImp|Product Description: AutoCAD Mechanical|Company: Autodesk, Inc."
 90
     1024
 91
        0
280
     0
281
     0
  0
CLASS
  1
ACMIDSTANDARDJIS
  2
AcmIdStdJIS
  3
"Amdt_StdImp|Product Description: AutoCAD Mechanical|Company: Autodesk, Inc."
 90
     1024
 91
        0
280
     0
281
     0
  0
CLASS
  1
ACMDATUMSTANDARDJIS
  2
AcmDatumStdJIS
  3
"Amdt_StdImp|Product Description: AutoCAD Mechanical|Company: Autodesk, Inc."
 90
     1024
 91
        0
280
     0
281
     0
  0
CLASS
  1
ACMBOMSTANDARDJIS
  2
AcmBOMStdJIS
  3
"Amdt_StdImp|Product Description: AutoCAD Mechanical|Company: Autodesk, Inc."
 90
     1024
 91
        0
280
     0
281
     0
  0
CLASS
  1
ACMDETAILSTANDARDJIS
  2
AmdtDetailSymStdJIS
  3
"Amdt_StdImp|Product Description: AutoCAD Mechanical|Company: Autodesk, Inc."
 90
     1024
 91
        0
280
     0
281
     0
  0
CLASS
  1
ACMSECTIONSTANDARDJIS
  2
AmdtSectionSymStdJIS
  3
"Amdt_StdImp|Product Description: AutoCAD Mechanical|Company: Autodesk, Inc."
 90
     1024
 91
        0
280
     0
281
     0
  0
CLASS
  1
ACMCENTERLINESTANDARDJIS
  2
AmdtCenterLineStdJIS
  3
"Amdt_StdImp|Product Description: AutoCAD Mechanical|Company: Autodesk, Inc."
 90
     1024
 91
        0
280
     0
281
     0
  0
CLASS
  1
ACMTHREADLINESTANDARDJIS
  2
AmdtThreadLineStdJIS
  3
"Amdt_StdImp|Product Description: AutoCAD Mechanical|Company: Autodesk, Inc."
 90
     1024
 91
        0
280
     0
281
     0
  0
CLASS
  1
ACMNOTESTANDARDJIS
  2
AmdtNoteStdJIS
  3
"Amdt_StdImp|Product Description: AutoCAD Mechanical|Company: Autodesk, Inc."
 90
     1024
 91
        0
280
     0
281
     0
  0
CLASS
  1
ACAMGHOLECHARTSTDJIS
  2
AcAmgHoleChartStdJIS
  3
"AmgDim" "Product Description: AutoCAD Mechanical|Company: Autodesk, Inc."
 90
     1024
 91
        0
280
     0
281
     0
  0
CLASS
  1
MATERIAL
  2
AcDbMaterial
  3
ObjectDBX Classes
 90
     1153
 91
        3
280
     0
281
     0
  0
CLASS
  1
VISUALSTYLE
  2
AcDbVisualStyle
  3
ObjectDBX Classes
 90
     4095
 91
       26
280
     0
281
     0
  0
CLASS
  1
ACMTAPERSTANDARDISO
  2
AcmTaperStdISO
  3
"Amdt_StdImp|Product Description: AutoCAD Mechanical|Company: Autodesk, Inc."
 90
     1024
 91
        1
280
     0
281
     0
  0
CLASS
  1
ACMTAPERSTANDARDJIS
  2
AcmTaperStdJIS
  3
"Amdt_StdImp|Product Description: AutoCAD Mechanical|Company: Autodesk, Inc."
 90
     1024
 91
        0
280
     0
281
     0
  0
CLASS
  1
CAMSSTRUCTBTNSTATE
  2
StructBtnState
  3
DesignerAssemblies_arx
 90
     1024
 91
        0
280
     0
281
     0
  0
CLASS
  1
EXACXREFPANELOBJECT
  2
ExAcXREFPanelObject
  3
EXAC_ESW
 90
     1025
 91
        0
280
     0
281
     0
  0
CLASS
  1
NPOCOLLECTION
  2
AcDbImpNonPersistentObjectsCollection
  3
ObjectDBX Classes
 90
     1153
 91
        0
280
     0
281
     0
  0
CLASS
  1
DIMASSOC
  2
AcDbDimAssoc
  3
"AcDbDimAssoc|Product Desc:     AcDim ARX App For Dimension|Company:          Autodesk, Inc.|WEB Address:      www.autodesk.com"
 90
        0
 91
        0
280
     0
281
     0
  0
CLASS
  1
SORTENTSTABLE
  2
AcDbSortentsTable
  3
ObjectDBX Classes
 90
        0
 91
        3
280
     0
281
     0
  0
CLASS
  1
AMDTNOTE
  2
AmdtNote
  3
"AcmSymBB|Product Description: AutoCAD Mechanical|Company: Autodesk, Inc."
 90
     1024
 91
        0
280
     0
281
     1
  0
CLASS
  1
SCALE
  2
AcDbScale
  3
ObjectDBX Classes
 90
     1153
 91
       17
280
     0
281
     0
  0
CLASS
  1
MLEADERSTYLE
  2
AcDbMLeaderStyle
  3
ACDB_MLEADERSTYLE_CLASS
 90
     4095
 91
        1
280
     0
281
     0
  0
CLASS
  1
ACDBSECTIONVIEWSTYLE
  2
AcDbSectionViewStyle
  3
ObjectDBX Classes
 90
     1025
 91
        2
280
     0
281
     0
  0
CLASS
  1
ACDBDETAILVIEWSTYLE
  2
AcDbDetailViewStyle
  3
ObjectDBX Classes
 90
     1025
 91
        2
280
     0
281
     0
  0
CLASS
  1
ACMANOOTATIONVIEWSTANDARDISO
  2
AmdtAnViewStdISO
  3
"Amdt_StdImp|Product Description: AutoCAD Mechanical|Company: Autodesk, Inc."
 90
     1024
 91
        1
280
     0
281
     0
  0
CLASS
  1
ACMSECTIONSTANDARDCUSTOM
  2
AmdtSectionSymStdCustom
  3
"Amdt_StdImp|Product Description: AutoCAD Mechanical|Company: Autodesk, Inc."
 90
     1024
 91
        1
280
     0
281
     0
  0
CLASS
  1
ACMDETAILTANDARDCUSTOM
  2
AmdtDetailSymStdCustom
  3
"Amdt_StdImp|Product Description: AutoCAD Mechanical|Company: Autodesk, Inc."
 90
     1024
 91
        1
280
     0
281
     0
  0
CLASS
  1
ACMANOOTATIONVIEWSTANDARDJIS
  2
AmdtAnViewStdJIS
  3
"Amdt_StdImp|Product Description: AutoCAD Mechanical|Company: Autodesk, Inc."
 90
     1024
 91
        0
280
     0
281
     0
  0
CLASS
  1
AMDTEDGESTANDARDJIS
  2
AmdtEdgeStdJIS
  3
"Amdt_StdImp|Product Description: AutoCAD Mechanical|Company: Autodesk, Inc."
 90
     1024
 91
        0
280
     0
281
     0
  0
CLASS
  1
FIELD
  2
AcDbField
  3
ObjectDBX Classes
 90
     1152
 91
        3
280
     0
281
     0
  0
CLASS
  1
FIELDLIST
  2
AcDbFieldList
  3
ObjectDBX Classes
 90
     1152
 91
        1
280
     0
281
     0
  0
CLASS
  1
ACMDATAENTRYBLOCK
  2
AcmDataEntryBlock
  3
"AcmSymBB" "Product Description: AutoCAD Mechanical|Company: Autodesk, Inc."
 90
     1024
 91
        0
280
     0
281
     0
  0
CLASS
  1
CELLSTYLEMAP
  2
AcDbCellStyleMap
  3
ObjectDBX Classes
 90
     1152
 91
        2
280
     0
281
     0
  0
CLASS
  1
ACMSURFSTANDARDISO2002
  2
AcmSurfTextStdISO2002
  3
"Amdt_StdImp|Product Description: AutoCAD Mechanical|Company: Autodesk, Inc."
 90
     1024
 91
        1
280
     0
281
     0
  0
CLASS
  1
ACMFCFSTANDARDISO2012
  2
AcmFCFStdISO2012
  3
"Amdt_StdImp|Product Description: AutoCAD Mechanical|Company: Autodesk, Inc."
 90
     1024
 91
        1
280
     0
281
     0
  0
CLASS
  1
ACMIDSTANDARDISO2012
  2
AcmIdStdISO2012
  3
"Amdt_StdImp|Product Description: AutoCAD Mechanical|Company: Autodesk, Inc."
 90
     1024
 91
        1
280
     0
281
     0
  0
CLASS
  1
ACMDATUMSTANDARDISO2012
  2
AcmDatumStdISO2012
  3
"Amdt_StdImp|Product Description: AutoCAD Mechanical|Company: Autodesk, Inc."
 90
     1024
 91
        1
280
     0
281
     0
  0
CLASS
  1
ACMSECTIONSTANDARDISO2001
  2
AmdtSectionSymStdISO2001
  3
"Amdt_StdImp|Product Description: AutoCAD Mechanical|Company: Autodesk, Inc."
 90
     1024
 91
        1
280
     0
281
     0
  0
ENDSEC
  0
SECTION
  2
TABLES
  0
TABLE
  2
VPORT
  5
8
330
0
100
AcDbSymbolTable
 70
     1
  0
VPORT
  5
9BA
330
8
100
AcDbSymbolTableRecord
100
AcDbViewportTableRecord
  2
*Active
 70
     0
 10
0.0
 20
0.0
 11
1.0
 21
1.0
 12
13.83046658032855
 22
5.17454815611013
 13
0.0
 23
0.0
 14
2.5
 24
2.5
 15
10.0
 25
10.0
 16
0.0
 26
0.0
 36
1.0
 17
0.0
 27
0.0
 37
0.0
 40
29.01499415901392
 41
2.332065906210393
 42
50.0
 43
0.0
 44
0.0
 50
0.0
 51
0.0
 71
     0
 72
  1000
 73
     1
 74
     3
 75
     0
 76
     0
 77
     0
 78
     0
281
     0
 65
     0
110
0.0
120
0.0
130
0.0
111
1.0
121
0.0
131
0.0
112
0.0
122
1.0
132
0.0
 79
     0
146
0.0
348
9C5
 60
     3
 61
     5
292
     1
282
     1
141
0.0
142
0.0
 63
   250
421
  3355443
1001
ACAD_NAV_VCDISPLAY
1070
     3
  0
ENDTAB
  0
TABLE
  2
LTYPE
  5
5
330
0
100
AcDbSymbolTable
 70
    17
  0
LTYPE
  5
14
330
5
100
AcDbSymbolTableRecord
100
AcDbLinetypeTableRecord
  2
ByBlock
 70
     0
  3

 72
    65
 73
     0
 40
0.0
  0
LTYPE
  5
15
330
5
100
AcDbSymbolTableRecord
100
AcDbLinetypeTableRecord
  2
ByLayer
 70
     0
  3

 72
    65
 73
     0
 40
0.0
  0
LTYPE
  5
16
330
5
100
AcDbSymbolTableRecord
100
AcDbLinetypeTableRecord
  2
Continuous
 70
     0
  3
Solid line
 72
    65
 73
     0
 40
0.0
  0
LTYPE
  5
63
330
5
100
AcDbSymbolTableRecord
100
AcDbLinetypeTableRecord
  2
HIDDEN
 70
     0
  3
Hidden __ __ __ __ __ __ __ __ __ __ __ __ __ _
 72
    65
 73
     2
 40
9.524999999999996
 49
6.349999999999998
 74
     0
 49
-3.174999999999998
 74
     0
  0
LTYPE
  5
64
330
5
100
AcDbSymbolTableRecord
100
AcDbLinetypeTableRecord
  2
PHANTOM2
 70
     0
  3
Phantom (.5x) ___ _ _ ___ _ _ ___ _ _ ___ _ _
 72
    65
 73
     6
 40
31.75
 49
15.875
 74
     0
 49
-3.174999999999998
 74
     0
 49
3.174999999999998
 74
     0
 49
-3.174999999999998
 74
     0
 49
3.174999999999998
 74
     0
 49
-3.174999999999998
 74
     0
  0
LTYPE
  5
65
330
5
100
AcDbSymbolTableRecord
100
AcDbLinetypeTableRecord
  2
CENTER
 70
     0
  3
Center ____ _ ____ _ ____ _ ____ _ ____ _ ____
 72
    65
 73
     4
 40
50.8
 49
31.75
 74
     0
 49
-6.349999999999998
 74
     0
 49
6.349999999999998
 74
     0
 49
-6.349999999999998
 74
     0
  0
LTYPE
  5
90
330
5
100
AcDbSymbolTableRecord
100
AcDbLinetypeTableRecord
  2
AM_ISO02W050
 70
     0
  3
__ __ __ __ __ __ __ __ __ __ __ __ __ __ __
 72
    65
 73
     2
 40
7.5
 49
6.0
 74
     0
 49
-1.5
 74
     0
  0
LTYPE
  5
91
330
5
100
AcDbSymbolTableRecord
100
AcDbLinetypeTableRecord
  2
AM_ISO08W050
 70
     0
  3
____ . ____ . ____ . ____ . ____ . ____ . ____
 72
    65
 73
     4
 40
18.0
 49
12.0
 74
     0
 49
-1.5
 74
     0
 49
3.0
 74
     0
 49
-1.5
 74
     0
  0
LTYPE
  5
92
330
5
100
AcDbSymbolTableRecord
100
AcDbLinetypeTableRecord
  2
AM_ISO09W050
 70
     0
  3
_____ . . _____ . . _____ . . ____ .. ____
 72
    65
 73
     6
 40
22.5
 49
12.0
 74
     0
 49
-1.5
 74
     0
 49
3.0
 74
     0
 49
-1.5
 74
     0
 49
3.0
 74
     0
 49
-1.5
 74
     0
  0
LTYPE
  5
93
330
5
100
AcDbSymbolTableRecord
100
AcDbLinetypeTableRecord
  2
Amconstr
 70
     0
  3
_______________________
 72
    65
 73
     2
 40
9999.0
 49
9999.0
 74
     0
 49
0.0
 74
     0
  0
LTYPE
  5
94
330
5
100
AcDbSymbolTableRecord
100
AcDbLinetypeTableRecord
  2
AM_ISO08W050x2
 70
     0
  3
__ . __ . __ . __ . __ . __
 72
    65
 73
     4
 40
9.0
 49
6.0
 74
     0
 49
-0.75
 74
     0
 49
1.5
 74
     0
 49
-0.75
 74
     0
  0
LTYPE
  5
95
330
5
100
AcDbSymbolTableRecord
100
AcDbLinetypeTableRecord
  2
AM_ISO02W050x2
 70
     0
  3
 _ _ _ _ _ _ _ _ _ _ _ _
 72
    65
 73
     2
 40
3.75
 49
3.0
 74
     0
 49
-0.75
 74
     0
  0
LTYPE
  5
98
330
5
100
AcDbSymbolTableRecord
100
AcDbLinetypeTableRecord
  2
Amzigzag
 70
     0
  3
/\/-/\/-/\/-/\/-/\/-/\/
 72
    65
 73
     2
 40
11.0001
 49
0.0001
 74
     4
 75
   136
340
97
 46
0.04
 50
0.0
 44
0.0
 45
0.0
 49
-11.0
 74
     0
  0
LTYPE
  5
A7
330
5
100
AcDbSymbolTableRecord
100
AcDbLinetypeTableRecord
  2
ACISOWELD
 70
     0
  3
_ _ _ _ _
 72
    65
 73
     2
 40
2.0
 49
2.0
 74
     0
 49
-1.0
 74
     0
  0
LTYPE
  5
A8
330
5
100
AcDbSymbolTableRecord
100
AcDbLinetypeTableRecord
  2
ACISOTGB
 70
     0
  3
__ . . __ . .
 72
    65
 73
     6
 40
9.0
 49
4.0
 74
     0
 49
-1.0
 74
     0
 49
1.0
 74
     0
 49
-1.0
 74
     0
 49
1.0
 74
     0
 49
-1.0
 74
     0
  0
LTYPE
  5
A9
330
5
100
AcDbSymbolTableRecord
100
AcDbLinetypeTableRecord
  2
ACISOTGL
 70
     0
  3
_ _ _ _ _
 72
    65
 73
     2
 40
3.0
 49
2.0
 74
     0
 49
-1.0
 74
     0
  0
LTYPE
  5
8AF
330
5
100
AcDbSymbolTableRecord
100
AcDbLinetypeTableRecord
  2
ACJISWELD
 70
     0
  3
_ _ _ _ _
 72
    65
 73
     2
 40
2.0
 49
2.0
 74
     0
 49
-1.0
 74
     0
  0
LTYPE
  5
8B0
330
5
100
AcDbSymbolTableRecord
100
AcDbLinetypeTableRecord
  2
ACJISTGB
 70
     0
  3
__ . . __ . .
 72
    65
 73
     6
 40
9.0
 49
4.0
 74
     0
 49
-1.0
 74
     0
 49
1.0
 74
     0
 49
-1.0
 74
     0
 49
1.0
 74
     0
 49
-1.0
 74
     0
  0
LTYPE
  5
8B1
330
5
100
AcDbSymbolTableRecord
100
AcDbLinetypeTableRecord
  2
ACJISTGL
 70
     0
  3
_ _ _ _ _
 72
    65
 73
     2
 40
3.0
 49
2.0
 74
     0
 49
-1.0
 74
     0
  0
ENDTAB
  0
TABLE
  2
LAYER
  5
2
102
{ACAD_XDICTIONARY
360
60C
102
}
330
0
100
AcDbSymbolTable
 70
     7
  0
LAYER
  5
10
102
{ACAD_XDICTIONARY
360
24D8
102
}
330
2
100
AcDbSymbolTableRecord
100
AcDbLayerTableRecord
  2
0
 70
     0
 62
     7
  6
Continuous
370
    30
390
F
347
9BE
  0
LAYER
  5
1F04
330
2
100
AcDbSymbolTableRecord
100
AcDbLayerTableRecord
  2
Defpoints
 70
     0
 62
     7
  6
Continuous
290
     0
370
    -3
390
F
347
9BE
  0
LAYER
  5
21CE
102
{ACAD_XDICTIONARY
360
21CF
102
}
330
2
100
AcDbSymbolTableRecord
100
AcDbLayerTableRecord
  2
AM_7
 70
     0
 62
     2
  6
AM_ISO08W050
370
    15
390
F
347
9BE
  0
LAYER
  5
21D0
102
{ACAD_XDICTIONARY
360
21D1
102
}
330
2
100
AcDbSymbolTableRecord
100
AcDbLayerTableRecord
  2
PV0005_1
 70
     0
 62
     7
  6
Continuous
370
    -3
390
F
347
9BE
  0
LAYER
  5
21D2
102
{ACAD_XDICTIONARY
360
21D3
102
}
330
2
100
AcDbSymbolTableRecord
100
AcDbLayerTableRecord
  2
AM_8
 70
     0
 62
     1
  6
Continuous
370
    15
390
F
347
9BE
1001
AcAecLayerStandard
1000

1000

  0
LAYER
  5
21D4
102
{ACAD_XDICTIONARY
360
21D5
102
}
330
2
100
AcDbSymbolTableRecord
100
AcDbLayerTableRecord
  2
AM_0
 70
     0
 62
     7
  6
Continuous
370
    30
390
F
347
9BE
1001
AcAecLayerStandard
1000

1000

  0
LAYER
  5
2450
102
{ACAD_XDICTIONARY
360
2451
102
}
330
2
100
AcDbSymbolTableRecord
100
AcDbLayerTableRecord
  2
AM_BOR
 70
     0
 62
     7
  6
Continuous
370
    30
390
F
347
9BE
  0
ENDTAB
  0
TABLE
  2
STYLE
  5
3
330
0
100
AcDbSymbolTable
 70
     6
  0
STYLE
  5
11
330
3
100
AcDbSymbolTableRecord
100
AcDbTextStyleTableRecord
  2
STANDARD
 70
     0
 40
0.0
 41
1.0
 50
0.0
 71
     0
 42
3.0
  3
MS PGothic.ttf
  4

1001
ACAD
1000
MS PGothic
1071
    32818
  0
STYLE
  5
97
330
3
100
AcDbSymbolTableRecord
100
AcDbTextStyleTableRecord
  2

 70
     1
 40
0.0
 41
1.0
 50
0.0
 71
     0
 42
2.5
  3
genltshp.shx
  4

  0
STYLE
  5
99
330
3
100
AcDbSymbolTableRecord
100
AcDbTextStyleTableRecord
  2
ACISOTS
 70
     0
 40
1.0
 41
1.0
 50
0.0
 71
     0
 42
2.5
  3
isocp.shx
  4
extfont.shx
  0
STYLE
  5
A6
330
3
100
AcDbSymbolTableRecord
100
AcDbTextStyleTableRecord
  2
ACISOGDT
 70
     0
 40
0.0
 41
1.0
 50
0.0
 71
     0
 42
2.5
  3
amgdt.shx
  4

  0
STYLE
  5
8A2
330
3
100
AcDbSymbolTableRecord
100
AcDbTextStyleTableRecord
  2
ACJISTS
 70
     0
 40
1.0
 41
1.0
 50
0.0
 71
     0
 42
2.5
  3
isocp.shx
  4
extfont.shx
  0
STYLE
  5
8AE
330
3
100
AcDbSymbolTableRecord
100
AcDbTextStyleTableRecord
  2
ACJISGDT
 70
     0
 40
0.0
 41
1.0
 50
0.0
 71
     0
 42
2.5
  3
amgdt.shx
  4

  0
ENDTAB
  0
TABLE
  2
VIEW
  5
6
330
0
100
AcDbSymbolTable
 70
     0
  0
ENDTAB
  0
TABLE
  2
UCS
  5
7
330
0
100
AcDbSymbolTable
 70
     0
  0
ENDTAB
  0
TABLE
  2
APPID
  5
9
330
0
100
AcDbSymbolTable
 70
    38
  0
APPID
  5
12
330
9
100
AcDbSymbolTableRecord
100
AcDbRegAppTableRecord
  2
ACAD
 70
     0
  0
APPID
  5
34
330
9
100
AcDbSymbolTableRecord
100
AcDbRegAppTableRecord
  2
MCAD_NO_VIS
 70
     0
  0
APPID
  5
35
330
9
100
AcDbSymbolTableRecord
100
AcDbRegAppTableRecord
  2
ACAD_TEMP_GRAPHIC
 70
     0
  0
APPID
  5
67
330
9
100
AcDbSymbolTableRecord
100
AcDbRegAppTableRecord
  2
AD_DRAW
 70
     0
  0
APPID
  5
6A
330
9
100
AcDbSymbolTableRecord
100
AcDbRegAppTableRecord
  2
ACATTRIBSERVICES
 70
     0
  0
APPID
  5
8A
330
9
100
AcDbSymbolTableRecord
100
AcDbRegAppTableRecord
  2
DESIGNERASSEMBLIES
 70
     0
  0
APPID
  5
B6
330
9
100
AcDbSymbolTableRecord
100
AcDbRegAppTableRecord
  2
ACAD_DSTYLE_DIMARC_LENGTH_SYMBOL
 70
     0
  0
APPID
  5
B7
330
9
100
AcDbSymbolTableRecord
100
AcDbRegAppTableRecord
  2
ACAD_DSTYLE_DIMJOGGED_JOGANGLE_SYMBOL
 70
     0
  0
APPID
  5
D9
330
9
100
AcDbSymbolTableRecord
100
AcDbRegAppTableRecord
  2
ACADM_DIM_EDIT
 70
     0
  0
APPID
  5
DA
330
9
100
AcDbSymbolTableRecord
100
AcDbRegAppTableRecord
  2
AMDT_DM_ADJ
 70
     0
  0
APPID
  5
E3
330
9
100
AcDbSymbolTableRecord
100
AcDbRegAppTableRecord
  2
ACAD_DSTYLE_DIMTEXT_FILL
 70
     0
  0
APPID
  5
E4
330
9
100
AcDbSymbolTableRecord
100
AcDbRegAppTableRecord
  2
ACAD_DSTYLE_DIMEXT_LENGTH
 70
     0
  0
APPID
  5
E5
330
9
100
AcDbSymbolTableRecord
100
AcDbRegAppTableRecord
  2
ACAD_DSTYLE_DIMEXT_ENABLED
 70
     0
  0
APPID
  5
E6
330
9
100
AcDbSymbolTableRecord
100
AcDbRegAppTableRecord
  2
ACAD_DSTYLE_DIM_LINETYPE
 70
     0
  0
APPID
  5
E7
330
9
100
AcDbSymbolTableRecord
100
AcDbRegAppTableRecord
  2
ACAD_DSTYLE_DIM_EXT1_LINETYPE
 70
     0
  0
APPID
  5
E8
330
9
100
AcDbSymbolTableRecord
100
AcDbRegAppTableRecord
  2
ACAD_DSTYLE_DIM_EXT2_LINETYPE
 70
     0
  0
APPID
  5
1E1
330
9
100
AcDbSymbolTableRecord
100
AcDbRegAppTableRecord
  2
AcAecLayerStandard
 70
     0
  0
APPID
  5
5E3
330
9
100
AcDbSymbolTableRecord
100
AcDbRegAppTableRecord
  2
ACAD_PSEXT
 70
     0
  0
APPID
  5
DFE
330
9
100
AcDbSymbolTableRecord
100
AcDbRegAppTableRecord
  2
GENIUS_GENODEF_13
 70
     0
  0
APPID
  5
DFF
330
9
100
AcDbSymbolTableRecord
100
AcDbRegAppTableRecord
  2
GENIUS_GENOBJ-N-FIL_13
 70
     0
  0
APPID
  5
E00
330
9
100
AcDbSymbolTableRecord
100
AcDbRegAppTableRecord
  2
GENIUS_GENREC_14
 70
     0
  0
APPID
  5
E01
330
9
100
AcDbSymbolTableRecord
100
AcDbRegAppTableRecord
  2
GENIUS_GENOBJ-N-REC_13
 70
     0
  0
APPID
  5
20CF
330
9
100
AcDbSymbolTableRecord
100
AcDbRegAppTableRecord
  2
DIMEXPLODE
 70
     0
  0
APPID
  5
21CB
330
9
100
AcDbSymbolTableRecord
100
AcDbRegAppTableRecord
  2
ACAD_NAV_VCDISPLAY
 70
     0
  0
APPID
  5
21D6
330
9
100
AcDbSymbolTableRecord
100
AcDbRegAppTableRecord
  2
GENIUS_GENOLIS_13
 70
     0
  0
APPID
  5
21D7
330
9
100
AcDbSymbolTableRecord
100
AcDbRegAppTableRecord
  2
GENIUS_GENOENT_13
 70
     0
  0
APPID
  5
21D8
330
9
100
AcDbSymbolTableRecord
100
AcDbRegAppTableRecord
  2
GENIUS_GENOREF_13
 70
     0
  0
APPID
  5
21D9
330
9
100
AcDbSymbolTableRecord
100
AcDbRegAppTableRecord
  2
GRADIENTCOLOR1ACI
 70
     0
  0
APPID
  5
21DA
330
9
100
AcDbSymbolTableRecord
100
AcDbRegAppTableRecord
  2
GRADIENTCOLOR2ACI
 70
     0
  0
APPID
  5
21DB
330
9
100
AcDbSymbolTableRecord
100
AcDbRegAppTableRecord
  2
GENIUS_GENOBJ-N-HTC_13
 70
     0
  0
APPID
  5
21DC
330
9
100
AcDbSymbolTableRecord
100
AcDbRegAppTableRecord
  2
GENIUS_GENHATCH_13
 70
     0
  0
APPID
  5
21DD
330
9
100
AcDbSymbolTableRecord
100
AcDbRegAppTableRecord
  2
GENIUS_GENOBJ-N-CRS_13
 70
     0
  0
APPID
  5
235F
330
9
100
AcDbSymbolTableRecord
100
AcDbRegAppTableRecord
  2
ACAD_EXEMPT_FROM_CAD_STANDARDS
 70
     0
  0
APPID
  5
2452
330
9
100
AcDbSymbolTableRecord
100
AcDbRegAppTableRecord
  2
GENIUS_GENOBJ-N-TIT_13
 70
     0
  0
APPID
  5
2453
330
9
100
AcDbSymbolTableRecord
100
AcDbRegAppTableRecord
  2
GENIUS_GENTITLE_13
 70
     0
  0
APPID
  5
251E
330
9
100
AcDbSymbolTableRecord
100
AcDbRegAppTableRecord
  2
ACAD_MLEADERVER
 70
     0
  0
APPID
  5
256B
330
9
100
AcDbSymbolTableRecord
100
AcDbRegAppTableRecord
  2
ACAD_DSTYLE_DIMBREAK
 70
     0
  0
APPID
  5
256C
330
9
100
AcDbSymbolTableRecord
100
AcDbRegAppTableRecord
  2
ACAD_DSTYLE_DIMJAG
 70
     0
  0
ENDTAB
  0
TABLE
  2
DIMSTYLE
  5
A
330
0
100
AcDbSymbolTable
 70
    16
100
AcDbDimStyleTable
 71
     4
340
8BA
340
8CF
340
8D2
340
B5
  0
DIMSTYLE
105
B5
102
{ACAD_REACTORS
330
2559
102
}
330
A
100
AcDbSymbolTableRecord
100
AcDbDimStyleTableRecord
  2
AM_ISO
 70
     0
  4
"
 41
2.5
 42
1.0
 43
10.0
 44
1.0
 47
0.1
 48
0.1
 49
0.0
 73
     0
 74
     0
 77
     1
 78
     8
 79
     2
 90
     1
140
3.5
141
0.0
143
0.0393701
146
0.71
147
1.5
172
     1
176
   256
177
   256
178
     2
271
     2
272
     2
283
     0
284
     8
340
11
341
39D
342
39D
371
    -1
372
    -1
1001
ACAD_DSTYLE_DIMJOGGED_JOGANGLE_SYMBOL
1070
   384
1040
0.7853981633974483
  0
DIMSTYLE
105
BE
330
A
100
AcDbSymbolTableRecord
100
AcDbDimStyleTableRecord
  2
AM_ISO$3
 70
     0
  4
"
 41
2.5
 42
1.0
 43
10.0
 44
1.0
 47
0.1
 48
0.1
 73
     0
 77
     1
 78
     8
 79
     2
 90
     1
140
3.5
141
0.0
143
0.0393701
146
0.71
147
1.5
176
   256
177
   256
178
     2
271
     2
272
     3
274
     4
283
     0
284
     8
288
     1
289
     0
340
11
371
    -1
372
    -1
1001
ACAD_DSTYLE_DIMJOGGED_JOGANGLE_SYMBOL
1070
   384
1040
0.7853981633974483
  0
DIMSTYLE
105
C1
330
A
100
AcDbSymbolTableRecord
100
AcDbDimStyleTableRecord
  2
AM_ISO$4
 70
     0
  4
"
 41
2.5
 42
1.0
 43
10.0
 44
1.0
 47
0.1
 48
0.1
 73
     0
 77
     1
 78
     8
 79
     2
 90
     1
140
3.5
141
0.0
143
0.0393701
146
0.71
147
1.5
176
   256
177
   256
178
     2
271
     2
272
     3
274
     4
283
     0
284
     8
288
     1
289
     0
340
11
371
    -1
372
    -1
1001
ACAD_DSTYLE_DIMJOGGED_JOGANGLE_SYMBOL
1070
   384
1040
0.7853981633974483
  0
DIMSTYLE
105
C4
330
A
100
AcDbSymbolTableRecord
100
AcDbDimStyleTableRecord
  2
AM_ISO$6
 70
     0
  4
"
 41
2.5
 42
1.0
 43
10.0
 44
1.0
 47
0.1
 48
0.1
 73
     0
 74
     0
 78
     8
 79
     2
 90
     1
140
3.5
141
0.0
143
0.0393701
146
0.71
147
1.5
172
     1
176
   256
177
   256
178
     2
271
     2
272
     3
274
     4
283
     0
284
     8
340
11
371
    -1
372
    -1
1001
ACAD_DSTYLE_DIMJOGGED_JOGANGLE_SYMBOL
1070
   384
1040
0.7853981633974483
  0
DIMSTYLE
105
C7
330
A
100
AcDbSymbolTableRecord
100
AcDbDimStyleTableRecord
  2
AM_ISO$7
 70
     0
  4
"
 41
2.5
 42
1.0
 43
10.0
 44
1.0
 47
0.1
 48
0.1
 73
     0
 74
     0
 77
     1
 78
     8
 79
     2
 90
     1
140
5.0
141
0.0
143
0.0393701
146
0.71
147
1.5
172
     1
176
   256
177
   256
178
     2
271
     2
272
     3
274
     4
283
     0
284
     8
340
11
371
    -1
372
    -1
1001
ACAD_DSTYLE_DIMJOGGED_JOGANGLE_SYMBOL
1070
   384
1040
0.7853981633974483
  0
DIMSTYLE
105
CA
330
A
100
AcDbSymbolTableRecord
100
AcDbDimStyleTableRecord
  2
AM_ISO$SF
 70
     0
  4
"
 41
2.5
 42
1.0
 43
10.0
 44
1.0
 47
0.1
 48
0.1
 73
     0
 74
     0
 75
     1
 76
     1
 77
     1
 78
     8
 79
     2
 90
     1
140
3.5
141
0.0
143
0.0393701
146
0.71
147
1.5
172
     1
176
   256
177
   256
178
     2
271
     2
272
     3
274
     4
283
     0
284
     8
340
11
371
    -1
372
    -1
1001
ACAD_DSTYLE_DIMJOGGED_JOGANGLE_SYMBOL
1070
   384
1040
0.7853981633974483
  0
DIMSTYLE
105
D1
330
A
100
AcDbSymbolTableRecord
100
AcDbDimStyleTableRecord
  2
AM_ISO$SH
 70
     0
  4
"
 41
2.5
 42
1.0
 43
10.0
 44
1.0
 47
0.1
 48
0.1
 73
     0
 74
     0
 75
     1
 76
     1
 77
     1
 78
     8
 79
     2
 90
     1
140
3.5
141
0.0
143
0.0393701
144
2.0
146
0.71
147
1.5
172
     1
173
     1
176
   256
177
   256
178
     2
271
     2
272
     3
274
     4
283
     0
284
     8
340
11
343
CB
371
    -1
372
    -1
1001
ACAD_DSTYLE_DIMJOGGED_JOGANGLE_SYMBOL
1070
   384
1040
0.7853981633974483
  0
DIMSTYLE
105
8BA
330
A
100
AcDbSymbolTableRecord
100
AcDbDimStyleTableRecord
  2
AM_JIS
 70
     0
  4
"
 41
2.5
 42
1.0
 43
10.0
 44
1.0
 47
0.1
 48
0.1000000001
 73
     0
 74
     0
 77
     3
 78
     8
 79
     2
 90
     1
140
2.5
141
0.0
143
0.0393701
146
0.71
147
1.0
172
     1
176
   256
177
   256
178
     7
271
     2
272
     2
283
     0
284
     8
340
11
341
39D
342
39D
371
    -1
372
    -1
1001
ACAD_DSTYLE_DIMJOGGED_JOGANGLE_SYMBOL
1070
   384
1040
0.7853981633974483
  0
DIMSTYLE
105
8C3
330
A
100
AcDbSymbolTableRecord
100
AcDbDimStyleTableRecord
  2
AM_JIS$3
 70
     0
  4
"
 41
2.5
 42
1.0
 43
10.0
 44
1.0
 47
0.1
 48
0.1000000001
 73
     0
 74
     0
 77
     3
 78
     8
 79
     2
 90
     1
140
2.5
141
0.0
143
0.0393701
146
0.71
147
1.0
172
     1
176
   256
177
   256
178
     7
271
     2
272
     2
283
     0
284
     8
289
     2
340
11
341
39D
342
39D
371
    -1
372
    -1
1001
ACAD_DSTYLE_DIMJOGGED_JOGANGLE_SYMBOL
1070
   384
1040
0.7853981633974483
  0
DIMSTYLE
105
8C6
330
A
100
AcDbSymbolTableRecord
100
AcDbDimStyleTableRecord
  2
AM_JIS$4
 70
     0
  4
"
 41
2.5
 42
1.0
 43
10.0
 44
1.0
 47
0.1
 48
0.1000000001
 73
     0
 74
     0
 77
     3
 78
     8
 79
     2
 90
     1
140
2.5
141
0.0
143
0.0393701
146
0.71
147
1.0
172
     1
176
   256
177
   256
178
     7
271
     2
272
     2
283
     0
284
     8
340
11
341
39D
342
39D
371
    -1
372
    -1
1001
ACAD_DSTYLE_DIMJOGGED_JOGANGLE_SYMBOL
1070
   384
1040
0.7853981633974483
  0
DIMSTYLE
105
8C9
330
A
100
AcDbSymbolTableRecord
100
AcDbDimStyleTableRecord
  2
AM_JIS$6
 70
     0
  4
"
 41
2.5
 42
1.0
 43
10.0
 44
1.0
 47
0.1
 48
0.1000000001
 73
     0
 74
     0
 78
     8
 79
     2
 90
     1
140
3.5
141
0.0
143
0.0393701
146
0.71
147
1.5
172
     1
176
   256
177
   256
178
     7
271
     2
272
     2
274
     4
283
     0
284
     8
340
11
341
39D
342
39D
343
39D
344
39D
371
    -1
372
    -1
1001
ACAD_DSTYLE_DIMJOGGED_JOGANGLE_SYMBOL
1070
   384
1040
0.7853981633974483
  0
DIMSTYLE
105
8CC
330
A
100
AcDbSymbolTableRecord
100
AcDbDimStyleTableRecord
  2
AM_JIS$7
 70
     0
  4
"
 41
2.5
 42
1.0
 43
10.0
 44
1.0
 47
0.1
 48
0.1000000001
 73
     0
 74
     0
 77
     3
 78
     8
 79
     2
 90
     1
140
2.5
141
0.0
143
0.0393701
146
0.71
147
1.0
172
     1
176
   256
177
   256
178
     7
271
     2
272
     2
283
     0
284
     8
340
11
341
39D
342
39D
371
    -1
372
    -1
1001
ACAD_DSTYLE_DIMJOGGED_JOGANGLE_SYMBOL
1070
   384
1040
0.7853981633974483
  0
DIMSTYLE
105
8CF
330
A
100
AcDbSymbolTableRecord
100
AcDbDimStyleTableRecord
  2
AM_JIS$SF
 70
     0
  4
"
 41
2.5
 42
1.0
 43
10.0
 44
1.0
 47
0.1
 48
0.1
 73
     0
 74
     0
 75
     1
 76
     1
 77
     3
 78
     8
 79
     2
 90
     1
140
2.5
141
0.0
143
0.0393701
146
0.71
147
1.0
172
     1
176
   256
177
   256
178
     7
271
     2
272
     2
283
     0
284
     8
340
11
341
39D
342
39D
371
    -1
372
    -1
1001
ACAD_DSTYLE_DIMJOGGED_JOGANGLE_SYMBOL
1070
   384
1040
0.7853981633974483
  0
DIMSTYLE
105
8D2
330
A
100
AcDbSymbolTableRecord
100
AcDbDimStyleTableRecord
  2
AM_JIS$SH
 70
     0
  4
"
 41
2.5
 42
1.0
 43
10.0
 44
1.0
 47
0.1
 48
0.1
 73
     0
 74
     0
 75
     1
 76
     1
 77
     3
 78
     8
 79
     2
 90
     1
140
2.5
141
0.0
143
0.0393701
144
2.0
146
0.71
147
1.0
172
     1
173
     1
176
   256
177
   256
178
     7
271
     2
272
     2
283
     0
284
     8
340
11
341
39D
343
CB
344
39D
371
    -1
372
    -1
1001
ACAD_DSTYLE_DIMJOGGED_JOGANGLE_SYMBOL
1070
   384
1040
0.7853981633974483
  0
DIMSTYLE
105
C93
330
A
100
AcDbSymbolTableRecord
100
AcDbDimStyleTableRecord
  2
AM_JIS$2
 70
     0
  4
"
 41
2.5
 42
1.0
 43
10.0
 44
1.0
 47
0.1
 48
0.1000000001
 73
     0
 74
     0
 77
     3
 78
     8
 79
     2
 90
     1
140
2.5
141
0.0
143
0.0393701
146
0.71
147
1.0
172
     1
176
   256
177
   256
178
     7
271
     2
272
     2
283
     0
284
     8
340
11
341
39D
342
39D
371
    -1
372
    -1
1001
ACAD_DSTYLE_DIMJOGGED_JOGANGLE_SYMBOL
1070
   384
1040
0.7853981633974483
  0
DIMSTYLE
105
1BA7
330
A
100
AcDbSymbolTableRecord
100
AcDbDimStyleTableRecord
  2
AM_JIS$0
 70
     0
  4
"
 41
2.5
 42
1.0
 43
10.0
 44
1.0
 47
0.1
 48
0.1000000001
 73
     0
 74
     0
 77
     3
 78
     9
 79
     2
 90
     1
140
2.5
141
0.0
143
0.0393701
146
0.71
147
1.0
172
     1
176
   256
177
   256
178
     7
271
     3
272
     3
283
     0
284
     8
340
11
341
39D
342
39D
371
    -1
372
    -1
1001
ACAD_DSTYLE_DIMJOGGED_JOGANGLE_SYMBOL
1070
   384
1040
0.7853981633974483
  0
ENDTAB
  0
TABLE
  2
BLOCK_RECORD
  5
1
330
0
100
AcDbSymbolTable
 70
     9
  0
BLOCK_RECORD
  5
23
102
{ACAD_XDICTIONARY
360
24BD
102
}
330
1
100
AcDbSymbolTableRecord
100
AcDbBlockTableRecord
  2
*Model_Space
340
26
 70
     0
280
     1
281
     0
  0
BLOCK_RECORD
  5
1F
330
1
100
AcDbSymbolTableRecord
100
AcDbBlockTableRecord
  2
*Paper_Space
340
22
 70
     0
280
     1
281
     0
  0
BLOCK_RECORD
  5
27
330
1
100
AcDbSymbolTableRecord
100
AcDbBlockTableRecord
  2
*Paper_Space0
340
2A
 70
     0
280
     1
281
     0
  0
BLOCK_RECORD
  5
CB
330
1
100
AcDbSymbolTableRecord
100
AcDbBlockTableRecord
  2
GENAXEH
340
0
 70
     0
280
     1
281
     0
  0
BLOCK_RECORD
  5
39D
330
1
100
AcDbSymbolTableRecord
100
AcDbBlockTableRecord
  2
_Open30
340
0
 70
     0
280
     1
281
     0
  0
BLOCK_RECORD
  5
21A4
330
1
100
AcDbSymbolTableRecord
100
AcDbBlockTableRecord
  2
_ACMNONE
340
0
 70
     0
280
     1
281
     0
  0
BLOCK_RECORD
  5
21A8
330
1
100
AcDbSymbolTableRecord
100
AcDbBlockTableRecord
  2
_ACMFILLED15
340
0
 70
     0
280
     1
281
     0
  0
BLOCK_RECORD
  5
21BA
330
1
100
AcDbSymbolTableRecord
100
AcDbBlockTableRecord
  2
_ACMOPEN15
340
0
 70
     0
280
     1
281
     0
  0
BLOCK_RECORD
  5
2364
102
{ACAD_XDICTIONARY
360
240C
102
}
330
1
100
AcDbSymbolTableRecord
100
AcDbBlockTableRecord
  2
A$C73c67c2e
340
0
 70
     4
280
     1
281
     0
  0
BLOCK_RECORD
  5
2412
102
{ACAD_XDICTIONARY
360
2413
102
}
330
1
100
AcDbSymbolTableRecord
100
AcDbBlockTableRecord
  2
DDK-表題欄-和
340
0
 70
     0
280
     1
281
     0
  0
ENDTAB
  0
ENDSEC
  0
SECTION
  2
BLOCKS
  0
BLOCK
  5
24
330
23
100
AcDbEntity
  8
0
100
AcDbBlockBegin
  2
*Model_Space
 70
     0
 10
0.0
 20
0.0
 30
0.0
  3
*Model_Space
  1

  0
ENDBLK
  5
25
330
23
100
AcDbEntity
  8
0
100
AcDbBlockEnd
  0
BLOCK
  5
20
330
1F
100
AcDbEntity
 67
     1
  8
0
100
AcDbBlockBegin
  2
*Paper_Space
 70
     0
 10
0.0
 20
0.0
 30
0.0
  3
*Paper_Space
  1

  0
ENDBLK
  5
21
330
1F
100
AcDbEntity
 67
     1
  8
0
100
AcDbBlockEnd
  0
BLOCK
  5
28
330
27
100
AcDbEntity
 67
     1
  8
0
100
AcDbBlockBegin
  2
*Paper_Space0
 70
     0
 10
0.0
 20
0.0
 30
0.0
  3
*Paper_Space0
  1

  0
ENDBLK
  5
29
330
27
100
AcDbEntity
 67
     1
  8
0
100
AcDbBlockEnd
  0
BLOCK
  5
CD
330
CB
100
AcDbEntity
  8
0
100
AcDbBlockBegin
  2
GENAXEH
 70
     0
 10
0.0
 20
0.0
 30
0.0
  3
GENAXEH
  1

  0
LINE
  5
CC
330
CB
100
AcDbEntity
  8
0
100
AcDbLine
 10
-1.0
 20
0.0
 30
0.0
 11
1.0
 21
0.0
 31
0.0
  0
ENDBLK
  5
CE
330
CB
100
AcDbEntity
  8
0
100
AcDbBlockEnd
  0
BLOCK
  5
3A1
330
39D
100
AcDbEntity
  8
0
100
AcDbBlockBegin
  2
_Open30
 70
     0
 10
0.0
 20
0.0
 30
0.0
  3
_Open30
  1

  0
LINE
  5
39E
330
39D
100
AcDbEntity
  8
0
  6
ByBlock
 62
     0
370
    -2
100
AcDbLine
 10
-1.0
 20
0.26794919
 30
0.0
 11
0.0
 21
0.0
 31
0.0
  0
LINE
  5
39F
330
39D
100
AcDbEntity
  8
0
  6
ByBlock
 62
     0
370
    -2
100
AcDbLine
 10
0.0
 20
0.0
 30
0.0
 11
-1.0
 21
-0.26794919
 31
0.0
  0
LINE
  5
3A0
330
39D
100
AcDbEntity
  8
0
  6
ByBlock
 62
     0
370
    -2
100
AcDbLine
 10
0.0
 20
0.0
 30
0.0
 11
-1.0
 21
0.0
 31
0.0
  0
ENDBLK
  5
3A2
330
39D
100
AcDbEntity
  8
0
100
AcDbBlockEnd
  0
BLOCK
  5
21A5
330
21A4
100
AcDbEntity
  8
0
100
AcDbBlockBegin
  2
_ACMNONE
 70
     0
 10
0.0
 20
0.0
 30
0.0
  3
_ACMNONE
  1

  0
LINE
  5
21A7
330
21A4
100
AcDbEntity
  8
0
 62
     0
100
AcDbLine
 10
-1.0
 20
0.0
 30
0.0
 11
0.0
 21
0.0
 31
0.0
  0
ENDBLK
  5
21A6
330
21A4
100
AcDbEntity
  8
0
100
AcDbBlockEnd
  0
BLOCK
  5
21A9
330
21A8
100
AcDbEntity
  8
0
100
AcDbBlockBegin
  2
_ACMFILLED15
 70
     0
 10
0.0
 20
0.0
 30
0.0
  3
_ACMFILLED15
  1

  0
TRACE
  5
21AB
330
21A8
100
AcDbEntity
  8
0
 62
     0
100
AcDbTrace
 10
-1.0
 20
-0.131652497
 30
0.0
 11
-1.0
 21
0.131652497
 31
0.0
 12
0.0
 22
0.0
 32
0.0
 13
0.0
 23
0.0
 33
0.0
  0
ENDBLK
  5
21AA
330
21A8
100
AcDbEntity
  8
0
100
AcDbBlockEnd
  0
BLOCK
  5
21BB
330
21BA
100
AcDbEntity
  8
0
100
AcDbBlockBegin
  2
_ACMOPEN15
 70
     0
 10
0.0
 20
0.0
 30
0.0
  3
_ACMOPEN15
  1

  0
LINE
  5
21BD
330
21BA
100
AcDbEntity
  8
0
 62
     0
100
AcDbLine
 10
-1.0
 20
0.0
 30
0.0
 11
0.0
 21
0.0
 31
0.0
  0
LINE
  5
21BE
330
21BA
100
AcDbEntity
  8
0
 62
     0
100
AcDbLine
 10
-1.0
 20
-0.131652497
 30
0.0
 11
0.0
 21
0.0
 31
0.0
  0
LINE
  5
21BF
330
21BA
100
AcDbEntity
  8
0
 62
     0
100
AcDbLine
 10
0.0
 20
0.0
 30
0.0
 11
-1.0
 21
0.131652497
 31
0.0
  0
ENDBLK
  5
21BC
330
21BA
100
AcDbEntity
  8
0
100
AcDbBlockEnd
  0
BLOCK
  5
240E
330
2364
100
AcDbEntity
  8
0
100
AcDbBlockBegin
  2
A$C73c67c2e
 70
     0
 10
0.0
 20
0.0
 30
0.0
  3
A$C73c67c2e
  1

  0
LINE
  5
2365
330
2364
100
AcDbEntity
  8
AM_7
  6
CENTER
 48
0.5
370
    15
100
AcDbLine
 10
9.639405724022614
 20
3.211120494427381
 30
0.0
 11
9.639405724022614
 21
-4.696273199496617
 31
0.0
1001
DIMEXPLODE
1070
     0
  0
LINE
  5
2366
330
2364
100
AcDbEntity
  8
AM_7
  6
CENTER
 48
0.5
370
    15
100
AcDbLine
 10
12.43940591475761
 20
0.2952040515562828
 30
0.0
 11
6.806072708580613
 21
0.2952040515562828
 31
0.0
1001
DIMEXPLODE
1070
     0
  0
LINE
  5
2367
330
2364
100
AcDbEntity
  8
0
  6
Continuous
 48
0.5
370
    30
100
AcDbLine
 10
11.63940667769661
 20
2.295204051556281
 30
0.0
 11
7.639405724022613
 21
2.295204051556281
 31
0.0
1001
DIMEXPLODE
1070
     0
  0
LINE
  5
2368
330
2364
100
AcDbEntity
  8
0
  6
Continuous
 48
0.5
370
    30
100
AcDbLine
 10
11.63940667769661
 20
-1.704795948443716
 30
0.0
 11
7.639405724022613
 21
-1.704795948443716
 31
0.0
1001
DIMEXPLODE
1070
     0
  0
LINE
  5
2369
330
2364
100
AcDbEntity
  8
0
  6
Continuous
 48
0.5
370
    30
100
AcDbLine
 10
7.639405724022613
 20
2.295204051556281
 30
0.0
 11
7.639405724022613
 21
-1.704795948443716
 31
0.0
1001
DIMEXPLODE
1070
     0
  0
LINE
  5
236A
330
2364
100
AcDbEntity
  8
0
  6
Continuous
 48
0.5
370
    30
100
AcDbLine
 10
11.63940667769661
 20
2.295204051556281
 30
0.0
 11
11.63940667769661
 21
-1.704795948443716
 31
0.0
1001
DIMEXPLODE
1070
     0
  0
LINE
  5
236B
330
2364
100
AcDbEntity
  8
0
  6
Continuous
 62
     3
 48
0.5
370
    30
100
AcDbLine
 10
9.639405724022614
 20
-3.704795948443716
 30
0.0
 11
11.13940572402261
 21
-3.704795948443716
 31
0.0
1001
DIMEXPLODE
1070
     0
  0
LINE
  5
236C
330
2364
100
AcDbEntity
  8
0
  6
Continuous
 62
     3
 48
0.5
370
    30
100
AcDbLine
 10
10.98940610549161
 20
-1.704795948443716
 30
0.0
 11
10.98940610549161
 21
-3.204795948443716
 31
0.0
1001
DIMEXPLODE
1070
     0
  0
LINE
  5
236D
330
2364
100
AcDbEntity
  8
0
  6
Continuous
 62
     3
 48
0.5
370
    30
100
AcDbLine
 10
9.639405724022614
 20
-3.704795948443716
 30
0.0
 11
8.139405724022614
 21
-3.704795948443716
 31
0.0
1001
DIMEXPLODE
1070
     0
  0
LINE
  5
236E
330
2364
100
AcDbEntity
  8
0
  6
Continuous
 62
     3
 48
0.5
370
    30
100
AcDbLine
 10
9.639405724022614
 20
-3.204795948443716
 30
0.0
 11
11.13940572402261
 21
-3.204795948443716
 31
0.0
1001
DIMEXPLODE
1070
     0
  0
LINE
  5
236F
330
2364
100
AcDbEntity
  8
0
  6
Continuous
 62
     3
 48
0.5
370
    30
100
AcDbLine
 10
11.13940572402261
 20
-3.204795948443716
 30
0.0
 11
11.13940572402261
 21
-3.704795948443716
 31
0.0
1001
DIMEXPLODE
1070
     0
  0
LINE
  5
2370
330
2364
100
AcDbEntity
  8
0
  6
Continuous
 62
     3
 48
0.5
370
    30
100
AcDbLine
 10
8.289406296226614
 20
-1.704795948443716
 30
0.0
 11
8.289406296226614
 21
-3.204795948443716
 31
0.0
1001
DIMEXPLODE
1070
     0
  0
LINE
  5
2371
330
2364
100
AcDbEntity
  8
0
  6
Continuous
 62
     3
 48
0.5
370
    30
100
AcDbLine
 10
9.639405724022614
 20
-3.204795948443716
 30
0.0
 11
8.139405724022614
 21
-3.204795948443716
 31
0.0
1001
DIMEXPLODE
1070
     0
  0
LINE
  5
2372
330
2364
100
AcDbEntity
  8
0
  6
Continuous
 62
     3
 48
0.5
370
    30
100
AcDbLine
 10
8.139405724022614
 20
-3.204795948443716
 30
0.0
 11
8.139405724022614
 21
-3.704795948443716
 31
0.0
1001
DIMEXPLODE
1070
     0
  0
CIRCLE
  5
2373
330
2364
100
AcDbEntity
  8
0
  6
Continuous
 48
0.5
370
    30
100
AcDbCircle
 10
9.639405724022614
 20
0.2952040515562828
 30
0.0
 40
0.2000000029802
  0
CIRCLE
  5
2374
330
2364
100
AcDbEntity
  8
0
  6
Continuous
 48
0.5
370
    30
100
AcDbCircle
 10
9.639405724022614
 20
0.2952040515562828
 30
0.0
 40
0.0500000007451
  0
CIRCLE
  5
2375
330
2364
100
AcDbEntity
  8
0
  6
Continuous
 48
0.5
370
    30
100
AcDbCircle
 10
9.639405724022614
 20
0.2952040515562828
 30
0.0
 40
2.0
  0
HATCH
  5
2376
330
2364
100
AcDbEntity
  8
0
 62
     4
370
    15
100
AcDbHatch
 10
0.0
 20
0.0
 30
0.0
210
0.0
220
0.0
230
1.0
  2
ANSI34
 70
     0
 71
     0
 91
        1
 92
        1
 93
       51
 72
     1
 10
-9.740545390849998
 20
0.5346225490327825
 11
-9.743296173055428
 21
0.5252040706297834
 72
     1
 10
-9.743296173055425
 20
0.5252040706297834
 11
-8.440299398090392
 21
0.5252040706297834
 72
     1
 10
-8.440299398090393
 20
0.5252040706297834
 11
-8.440299398090393
 21
0.7652040801664839
 72
     1
 10
-8.440299398090393
 20
0.7652040801664839
 11
-8.540299399580597
 21
0.8652041040083844
 72
     1
 10
-8.540299399580597
 20
0.8652041040083844
 11
-9.82084826713943
 21
0.8652041040083915
 72
     1
 10
-9.82084826713943
 20
0.8652041040083915
 11
-9.817600539263812
 21
0.8597533061294413
 72
     1
 10
-9.817600539263812
 20
0.8597533061294413
 11
-9.812174325020137
 21
0.850568652460211
 72
     1
 10
-9.812174325020137
 20
0.850568652460211
 11
-9.807108963219056
 21
0.8419108662888277
 72
     1
 10
-9.807108963219056
 20
0.8419108662888277
 11
-9.802384005558916
 21
0.8337444728558978
 72
     1
 10
-9.802384005558911
 20
0.8337444728558978
 11
-9.797979003737486
 21
0.8260339974006496
 72
     1
 10
-9.797979003737488
 20
0.8260339974006496
 11
-9.793873509454208
 21
0.8187439651645647
 72
     1
 10
-9.793873509454208
 20
0.8187439651645647
 11
-9.790047074406203
 21
0.8118389013858758
 72
     1
 10
-9.790047074406203
 20
0.8118389013858758
 11
-9.786479250293004
 21
0.805283331306647
 72
     1
 10
-9.786479250293004
 20
0.805283331306647
 11
-9.783149588812293
 21
0.7990417801651262
 72
     1
 10
-9.783149588812287
 20
0.7990417801651262
 11
-9.780037641662627
 21
0.7930787732027726
 72
     1
 10
-9.78003764166263
 20
0.7930787732027726
 11
-9.777122960542307
 21
0.7873588356586369
 72
     1
 10
-9.777122960542307
 20
0.7873588356586369
 11
-9.774385097149986
 21
0.7818464927740009
 72
     1
 10
-9.774385097149984
 20
0.7818464927740009
 11
-9.771803603183693
 21
0.776506269787781
 72
     1
 10
-9.771803603183693
 20
0.776506269787781
 11
-9.769358030342132
 21
0.7713026919410027
 72
     1
 10
-9.769358030342132
 20
0.7713026919410027
 11
-9.767027930323283
 21
0.7662002844728592
 72
     1
 10
-9.767027930323283
 20
0.7662002844728592
 11
-9.764792854825907
 21
0.7611635726243124
 72
     1
 10
-9.764792854825907
 20
0.7611635726243124
 11
-9.762632355548118
 21
0.7561570816348679
 72
     1
 10
-9.762632355548118
 20
0.7561570816348679
 11
-9.760525984188452
 21
0.7511453367449194
 72
     1
 10
-9.760525984188452
 20
0.7511453367449194
 11
-9.758453292445313
 21
0.7460928631946972
 72
     1
 10
-9.758453292445313
 20
0.7460928631946972
 11
-9.756393832016895
 21
0.7409641862237635
 72
     1
 10
-9.756393832016895
 20
0.7409641862237635
 11
-9.754327154601744
 21
0.7357238310727681
 72
     1
 10
-9.754327154601741
 20
0.7357238310727681
 11
-9.752232819236427
 21
0.730336328105139
 72
     1
 10
-9.752232819236427
 20
0.730336328105139
 11
-9.750099900364286
 21
0.7247728513480567
 72
     1
 10
-9.750099900364286
 20
0.7247728513480567
 11
-9.747945676076204
 21
0.719024266634726
 72
     1
 10
-9.747945676076207
 20
0.719024266634726
 11
-9.745792625399987
 21
0.7130850710955558
 72
     1
 10
-9.745792625399984
 20
0.7130850710955558
 11
-9.743663227363764
 21
0.7069497618619565
 72
     1
 10
-9.743663227363764
 20
0.7069497618619565
 11
-9.741579960995359
 21
0.7006128360645079
 72
     1
 10
-9.741579960995359
 20
0.7006128360645079
 11
-9.739565305322797
 21
0.6940687908342868
 72
     1
 10
-9.739565305322797
 20
0.6940687908342868
 11
-9.737641739374007
 21
0.6873121233021422
 72
     1
 10
-9.737641739374007
 20
0.6873121233021422
 11
-9.735831742176918
 21
0.6803373305988673
 72
     1
 10
-9.73583174217692
 20
0.6803373305988673
 11
-9.734157792759562
 21
0.6731389098556804
 72
     1
 10
-9.73415779275956
 20
0.6731389098556804
 11
-9.732642370149813
 21
0.6657113582031827
 72
     1
 10
-9.732642370149816
 20
0.6657113582031827
 11
-9.731307953375656
 21
0.6580491727723869
 72
     1
 10
-9.731307953375656
 20
0.6580491727723869
 11
-9.730177021465022
 21
0.6501468506941777
 72
     1
 10
-9.730177021465022
 20
0.6501468506941777
 11
-9.729272053445882
 21
0.641998889099405
 72
     1
 10
-9.729272053445882
 20
0.641998889099405
 11
-9.728615528346175
 21
0.6335997851190385
 72
     1
 10
-9.728615528346175
 20
0.6335997851190385
 11
-9.728229925193868
 21
0.6249440358840488
 72
     1
 10
-9.728229925193872
 20
0.6249440358840488
 11
-9.728137723016908
 21
0.616026138525136
 72
     1
 10
-9.728137723016908
 20
0.616026138525136
 11
-9.728361400843233
 21
0.6068405901734196
 72
     1
 10
-9.728361400843233
 20
0.6068405901734196
 11
-9.728923437700814
 21
0.5973818879596992
 72
     1
 10
-9.728923437700814
 20
0.5973818879596992
 11
-9.72984631261759
 21
0.587644529014753
 72
     1
 10
-9.729846312617588
 20
0.587644529014753
 11
-9.731152504621508
 21
0.5776230104696936
 72
     1
 10
-9.731152504621508
 20
0.5776230104696936
 11
-9.732864492740546
 21
0.5673118294552353
 72
     1
 10
-9.732864492740546
 20
0.5673118294552353
 11
-9.73500430504135
 21
0.5567056297055615
 72
     1
 10
-9.73500430504135
 20
0.5567056297055615
 11
-9.737573530590042
 21
0.5458056994717923
 72
     1
 10
-9.737573530590045
 20
0.5458056994717923
 11
-9.740545390849998
 21
0.5346225490327825
 97
        0
 75
     0
 76
     1
 52
90.0
 41
0.05
 77
     0
 78
     4
 53
135.0
 43
-8.613632730032996
 44
-0.7047959484437172
 45
-0.6735192090801867
 46
-0.6735192090801866
 79
     0
 53
135.0
 43
-8.613632730032996
 44
-0.4802894484437134
 45
-0.6735192090801867
 46
-0.6735192090801866
 79
     0
 53
135.0
 43
-8.613632730032996
 44
-0.2557829484437164
 45
-0.6735192090801867
 46
-0.6735192090801866
 79
     0
 53
135.0
 43
-8.613632730032996
 44
-0.0312759484437208
 45
-0.6735192090801867
 46
-0.6735192090801866
 79
     0
 98
        1
 10
-10.58288121685468
 20
0.7447412235858552
1001
ACAD
1010
0.0
1020
0.0
1030
0.0
  0
LINE
  5
2377
330
2364
100
AcDbEntity
  8
AM_7
  6
CENTER
 48
0.3
370
    15
100
AcDbLine
 10
-12.41029935219489
 20
3.025667794766078
 30
0.0
 11
-12.41029935219489
 21
-4.633792305127626
 31
0.0
1001
DIMEXPLODE
1070
     0
  0
LINE
  5
2378
330
2364
100
AcDbEntity
  8
0
  6
Continuous
 62
     2
 48
0.5
370
    30
100
AcDbLine
 10
-7.520106962706598
 20
0.4952040992399846
 30
0.0
 11
-9.753072525919584
 21
0.4952040992399846
 31
0.0
1001
DIMEXPLODE
1070
     0
  0
LINE
  5
2379
330
2364
100
AcDbEntity
  8
0
  6
Continuous
 62
     4
 48
0.5
370
    30
100
AcDbLine
 10
-8.440299398090393
 20
0.7652040801664839
 30
0.0
 11
-8.440299398090393
 21
0.4952040992399846
 31
0.0
1001
DIMEXPLODE
1070
     0
  0
LINE
  5
237A
330
2364
100
AcDbEntity
  8
0
  6
Continuous
 62
     4
 48
0.5
370
    30
100
AcDbLine
 10
-8.440299398090393
 20
0.7652040801664839
 30
0.0
 11
-8.440299398090393
 21
0.4952040992399846
 31
0.0
1001
DIMEXPLODE
1070
     0
  0
LINE
  5
237B
330
2364
100
AcDbEntity
  8
0
  6
Continuous
 62
     4
 48
0.5
370
    30
100
AcDbLine
 10
-8.540299399580597
 20
0.8652041040083844
 30
0.0
 11
-8.440299398090393
 21
0.7652040801664839
 31
0.0
1001
DIMEXPLODE
1070
     0
  0
LINE
  5
237C
330
2364
100
AcDbEntity
  8
0
  6
Continuous
 62
     2
 48
0.5
370
    30
100
AcDbLine
 10
-7.26029937603669
 20
0.3452040038725812
 30
0.0
 11
-7.26029937603669
 21
0.2952040515562828
 31
0.0
1001
DIMEXPLODE
1070
     0
  0
LINE
  5
237D
330
2364
100
AcDbEntity
  8
0
  6
Continuous
 62
     2
 48
0.5
370
    30
100
AcDbLine
 10
-7.26029937603669
 20
0.3452040038725812
 30
0.0
 11
-7.520106962706598
 21
0.4952040992399846
 31
0.0
1001
DIMEXPLODE
1070
     0
  0
LINE
  5
237E
330
2364
100
AcDbEntity
  8
0
  6
Continuous
 62
     4
 48
0.5
370
    30
100
AcDbLine
 10
-8.540299399580597
 20
0.8652041040083844
 30
0.0
 11
-9.820842633356207
 21
0.8652041040083844
 31
0.0
1001
DIMEXPLODE
1070
     0
  0
LINE
  5
237F
330
2364
100
AcDbEntity
  8
AM_7
  6
CENTER
 48
0.3
370
    15
100
AcDbLine
 10
-6.535848430182503
 20
0.2952040515562828
 30
0.0
 11
-14.7008700881263
 21
0.2952040515562828
 31
0.0
1001
DIMEXPLODE
1070
     0
  0
LINE
  5
2380
330
2364
100
AcDbEntity
  8
0
  6
Continuous
 62
     4
 48
0.5
370
    30
100
AcDbLine
 10
-8.440299398090393
 20
0.5252040706297834
 30
0.0
 11
-9.743275949572966
 21
0.5252040706297834
 31
0.0
1001
DIMEXPLODE
1070
     0
  0
LINE
  5
2381
330
2364
100
AcDbEntity
  8
0
  6
Continuous
 62
     3
 48
0.5
370
    30
100
AcDbLine
 10
-10.2421013627311
 20
2.295204051556281
 30
0.0
 11
-9.946390679862098
 21
1.999493487896586
 31
0.0
1001
DIMEXPLODE
1070
     0
  0
HATCH
  5
2382
330
2364
100
AcDbEntity
  8
0
 62
     2
370
    15
100
AcDbHatch
 10
0.0
 20
0.0
 30
0.0
210
0.0
220
0.0
230
1.0
  2
ANSI31
 70
     0
 71
     0
 91
        1
 92
        1
 93
       19
 72
     1
 10
-7.280299356963204
 20
0.2952040515562828
 11
-7.280299356963201
 21
0.3452040038725741
 72
     1
 10
-7.280299356963201
 20
0.3452040038725741
 11
-7.540107062842392
 21
0.4952040992399846
 72
     1
 10
-7.540107062842392
 20
0.4952040992399846
 11
-9.753094453977096
 21
0.4952040992399846
 72
     1
 10
-9.753094453977096
 20
0.4952040992399846
 11
-9.75588180248315
 21
0.4872815414534415
 72
     1
 10
-9.755881802483152
 20
0.4872815414534415
 11
-9.760433803909755
 21
0.47485013715918
 72
     1
 10
-9.760433803909755
 20
0.47485013715918
 11
-9.765215227091539
 21
0.462202651528621
 72
     1
 10
-9.765215227091539
 20
0.462202651528621
 11
-9.770197203202892
 21
0.4493502743718027
 72
     1
 10
-9.770197203202894
 20
0.4493502743718027
 11
-9.775350863417537
 21
0.4363041955021886
 72
     1
 10
-9.775350863417537
 20
0.4363041955021886
 11
-9.780647338908972
 21
0.4230756047297392
 72
     1
 10
-9.78064733890897
 20
0.4230756047297392
 11
-9.786057760851983
 21
0.4096756918648694
 72
     1
 10
-9.786057760851983
 20
0.4096756918648694
 11
-9.791553260421324
 21
0.3961156467188687
 72
     1
 10
-9.791553260421324
 20
0.3961156467188687
 11
-9.797104968788799
 21
0.3824066591101598
 72
     1
 10
-9.797104968788795
 20
0.3824066591101598
 11
-9.802684017130195
 21
0.3685599188354374
 72
     1
 10
-9.802684017130195
 20
0.3685599188354374
 11
-9.808261536619514
 21
0.3545866157177073
 72
     1
 10
-9.808261536619514
 20
0.3545866157177073
 11
-9.81380865842968
 21
0.3404979395671646
 72
     1
 10
-9.81380865842968
 20
0.3404979395671646
 11
-9.819296513735094
 21
0.3263050801933929
 72
     1
 10
-9.819296513735091
 20
0.3263050801933929
 11
-9.824696233710046
 21
0.3120192274069709
 72
     1
 10
-9.824696233710046
 20
0.3120192274069709
 11
-9.830878856196822
 21
0.2952040515562757
 72
     1
 10
-9.830878856196822
 20
0.2952040515562757
 11
-7.280299356963201
 21
0.2952040515562828
 97
        0
 75
     0
 76
     1
 52
0.0
 41
0.1
 77
     0
 78
     1
 53
45.0
 43
-8.613632730032996
 44
-0.7047959484437172
 45
-0.2245064030267288
 46
0.2245064030267288
 79
     0
 98
        1
 10
-8.613632730032996
 20
-0.7047959484437172
  0
LINE
  5
2383
330
2364
100
AcDbEntity
  8
0
  6
Continuous
 62
     3
 48
0.5
370
    30
100
AcDbLine
 10
-12.41029935219489
 20
-1.704795829234463
 30
0.0
 11
-14.16029935219489
 21
-1.704795829234465
 31
0.0
1001
DIMEXPLODE
1070
     0
  0
LINE
  5
2384
330
2364
100
AcDbEntity
  8
0
  6
Continuous
 62
     3
 48
0.5
370
    30
100
AcDbLine
 10
-10.2421013627311
 20
-1.704795829234465
 30
0.0
 11
-12.41029935219489
 21
-1.704795829234465
 31
0.0
1001
DIMEXPLODE
1070
     0
  0
LINE
  5
2385
330
2364
100
AcDbEntity
  8
0
  6
Continuous
 62
     3
 48
0.5
370
    30
100
AcDbLine
 10
-14.16029935219489
 20
2.295203932347035
 30
0.0
 11
-14.16029935219489
 21
-1.704795829234465
 31
0.0
1001
DIMEXPLODE
1070
     0
  0
LINE
  5
2386
330
2364
100
AcDbEntity
  8
0
  6
Continuous
 62
     3
 48
0.5
370
    30
100
AcDbLine
 10
-10.24210124352179
 20
2.295203932347035
 30
0.0
 11
-14.16029935219489
 21
2.295203932347035
 31
0.0
1001
DIMEXPLODE
1070
     0
  0
LINE
  5
2387
330
2364
100
AcDbEntity
  8
0
  6
Continuous
 62
     3
 48
0.5
370
    30
100
AcDbLine
 10
-10.66029935219489
 20
0.2952039323470359
 30
0.0
 11
-10.66029935219489
 21
-1.704795829234465
 31
0.0
1001
DIMEXPLODE
1070
     0
  0
LINE
  5
2388
330
2364
100
AcDbEntity
  8
0
  6
Continuous
 62
     3
 48
0.5
370
    30
100
AcDbLine
 10
-12.41029935219489
 20
-3.204795829234466
 30
0.0
 11
-10.91029935219489
 21
-3.204795829234466
 31
0.0
1001
DIMEXPLODE
1070
     0
  0
LINE
  5
2389
330
2364
100
AcDbEntity
  8
0
  6
Continuous
 62
     3
 48
0.5
370
    30
100
AcDbLine
 10
-10.91029935219489
 20
-3.204795829234466
 30
0.0
 11
-10.91029935219489
 21
-3.704795829234466
 31
0.0
1001
DIMEXPLODE
1070
     0
  0
LINE
  5
238A
330
2364
100
AcDbEntity
  8
0
  6
Continuous
 62
     3
 48
0.5
370
    30
100
AcDbLine
 10
-13.7602992568275
 20
-1.704795829234465
 30
0.0
 11
-13.7602992568275
 21
-3.204795829234466
 31
0.0
1001
DIMEXPLODE
1070
     0
  0
LINE
  5
238B
330
2364
100
AcDbEntity
  8
0
  6
Continuous
 62
     3
 48
0.5
370
    30
100
AcDbLine
 10
-13.91029935219489
 20
-3.204795829234466
 30
0.0
 11
-13.91029935219489
 21
-3.704795829234466
 31
0.0
1001
DIMEXPLODE
1070
     0
  0
LINE
  5
238C
330
2364
100
AcDbEntity
  8
0
  6
Continuous
 62
     3
 48
0.5
370
    30
100
AcDbLine
 10
-12.41029935219489
 20
-3.204795829234472
 30
0.0
 11
-13.91029935219489
 21
-3.204795829234466
 31
0.0
1001
DIMEXPLODE
1070
     0
  0
LINE
  5
238D
330
2364
100
AcDbEntity
  8
0
  6
Continuous
 62
     3
 48
0.5
370
    30
100
AcDbLine
 10
-12.41029935219489
 20
-3.704795829234466
 30
0.0
 11
-13.91029935219489
 21
-3.704795829234466
 31
0.0
1001
DIMEXPLODE
1070
     0
  0
LINE
  5
238E
330
2364
100
AcDbEntity
  8
0
  6
Continuous
 62
     3
 48
0.5
370
    30
100
AcDbLine
 10
-12.41029935219489
 20
-3.704795829234466
 30
0.0
 11
-10.91029935219489
 21
-3.704795829234466
 31
0.0
1001
DIMEXPLODE
1070
     0
  0
LINE
  5
238F
330
2364
100
AcDbEntity
  8
0
  6
Continuous
 62
     3
 48
0.5
370
    30
100
AcDbLine
 10
-11.06029944756239
 20
-1.704795829234465
 30
0.0
 11
-11.06029944756239
 21
-3.204795829234466
 31
0.0
1001
DIMEXPLODE
1070
     0
  0
LINE
  5
2390
330
2364
100
AcDbEntity
  8
PV0005_1
  6
Continuous
 62
     3
 48
0.5
370
    30
100
AcDbLine
 10
-10.2421013627311
 20
-1.704795948443716
 30
0.0
 11
-9.946390679862098
 21
-1.409085265574717
 31
0.0
1001
DIMEXPLODE
1070
     0
  0
LINE
  5
2391
330
2364
100
AcDbEntity
  8
PV0005_1
  6
Continuous
 62
     3
 48
0.5
370
    30
100
AcDbLine
 10
-9.902456692244591
 20
0.2952040515562828
 30
0.0
 11
-9.902456692244591
 21
-1.303019277034116
 31
0.0
1001
DIMEXPLODE
1070
     0
  0
LINE
  5
2392
330
2364
100
AcDbEntity
  8
PV0005_1
  6
Continuous
 62
     3
 48
0.5
370
    30
100
AcDbLine
 10
-10.2421013627311
 20
0.2952040515562828
 30
0.0
 11
-10.2421013627311
 21
-1.704795948443716
 31
0.0
1001
DIMEXPLODE
1070
     0
  0
ARC
  5
2393
330
2364
100
AcDbEntity
  8
PV0005_1
  6
Continuous
 62
     3
 48
0.5
370
    30
100
AcDbCircle
 10
-10.0524566684028
 20
-1.303019277034116
 30
0.0
 40
0.1500000059605
100
AcDbArc
 50
314.9999987477631
 51
0.0000011383641832
1001
DIMEXPLODE
1070
     0
  0
ARC
  5
2394
330
2364
100
AcDbEntity
  8
AM_0
 62
     6
100
AcDbCircle
 10
-9.275299113776274
 20
-0.7797959484437201
 30
0.0
 40
0.3999999999999906
100
AcDbArc
 50
227.5000000000005
 51
312.4999999999988
  0
LINE
  5
2395
330
2364
100
AcDbEntity
  8
AM_0
 62
     6
100
AcDbLine
 10
-9.545535196822534
 20
-1.074706883167749
 30
0.0
 11
-9.675299113776253
 21
-0.9558001608004643
 31
0.0
  0
LINE
  5
2396
330
2364
100
AcDbEntity
  8
AM_0
 62
     6
100
AcDbLine
 10
-8.875299113776184
 20
-0.9558001608004785
 30
0.0
 11
-9.005063030730021
 21
-1.074706883167762
 31
0.0
  0
ARC
  5
2397
330
2364
100
AcDbEntity
  8
AM_0
 62
     6
100
AcDbCircle
 10
-9.275299113776263
 20
0.2877888264554968
 30
0.0
 40
0.708593860798866
100
AcDbArc
 50
247.5814618262893
 51
292.4185381737027
  0
SPLINE
  5
2398
330
2364
100
AcDbEntity
  8
AM_0
 62
     6
100
AcDbSpline
210
0.0
220
0.0
230
1.0
 70
     8
 71
     3
 72
    20
 73
    16
 74
     0
 42
0.000000001
 43
0.0000000001
 40
0.0
 40
0.0
 40
0.0
 40
0.0
 40
0.0000335781964564
 40
0.0000335781964564
 40
0.0000335781964564
 40
0.0000671592877428
 40
0.0000671592877428
 40
0.0000671592877428
 40
0.0001007034734845
 40
0.0001007034734845
 40
0.0001007034734845
 40
0.0001342560508289
 40
0.0001342560508289
 40
0.0001342560508289
 40
0.0001427932918105
 40
0.0001427932918105
 40
0.0001427932918105
 40
0.0001427932918105
 10
-9.675299113776253
 20
-0.9501928278124012
 30
0.0
 10
-9.675299113776253
 20
-0.9491527740032379
 30
0.0
 10
-9.676642900145743
 20
-0.9467203917314179
 30
0.0
 10
-9.679233930116943
 20
-0.9431047095353337
 30
0.0
 10
-9.68182510440574
 20
-0.9394888259494392
 30
0.0
 10
-9.685736219430914
 20
-0.9345905247442658
 30
0.0
 10
-9.690672228889132
 20
-0.9288450612727103
 30
0.0
 10
-9.695602997486112
 20
-0.923105698109083
 30
0.0
 10
-9.701693742976154
 20
-0.9163644310451955
 30
0.0
 10
-9.708475018535132
 20
-0.9092164407145729
 30
0.0
 10
-9.715258016767911
 20
-0.9020666345521419
 30
0.0
 10
-9.72292033562082
 20
-0.8943145199222897
 30
0.0
 10
-9.730855560678667
 20
-0.8866309099073815
 30
0.0
 10
-9.732901743811744
 20
-0.8846496084193802
 30
0.0
 10
-9.734974536827683
 20
-0.8826639661691897
 30
0.0
 10
-9.737062605495175
 20
-0.8806854244085966
 30
0.0
  0
LINE
  5
2399
330
2364
100
AcDbEntity
  8
AM_0
 62
     6
100
AcDbLine
 10
-9.675299113776253
 20
-0.9501928278124012
 30
0.0
 11
-9.675299113776253
 21
-0.9558001608004643
 31
0.0
  0
LINE
  5
239A
330
2364
100
AcDbEntity
  8
AM_0
 62
     6
100
AcDbLine
 10
-9.545535196822534
 20
-0.3672514158057254
 30
0.0
 11
-9.737062605495159
 21
-0.2795001481829047
 31
0.0
  0
LINE
  5
239B
330
2364
100
AcDbEntity
  8
AM_0
 62
     6
100
AcDbLine
 10
-8.875299113776184
 20
-0.9501928278124154
 30
0.0
 11
-8.875299113776184
 21
-0.9558001608004785
 31
0.0
  0
SPLINE
  5
239C
330
2364
100
AcDbEntity
  8
AM_0
 62
     6
100
AcDbSpline
210
0.0
220
0.0
230
1.0
 70
     8
 71
     3
 72
    20
 73
    16
 74
     0
 42
0.000000001
 43
0.0000000001
 40
0.0
 40
0.0
 40
0.0
 40
0.0
 40
0.000033571749035
 40
0.000033571749035
 40
0.000033571749035
 40
0.0000671442014426
 40
0.0000671442014426
 40
0.0000671442014426
 40
0.0001007043000217
 40
0.0001007043000217
 40
0.0001007043000217
 40
0.0001342458940626
 40
0.0001342458940626
 40
0.0001342458940626
 40
0.0001427926236771
 40
0.0001427926236771
 40
0.0001427926236771
 40
0.0001427926236771
 10
-8.813535622057264
 20
-0.8806854244086679
 30
0.0
 10
-8.821637822596535
 20
-0.8883626346308091
 30
0.0
 10
-8.829584233665238
 20
-0.8962282702558326
 30
0.0
 10
-8.836740354818237
 20
-0.9036058206077511
 30
0.0
 10
-8.843896558501292
 20
-0.9109834560436381
 30
0.0
 10
-8.85046133108046
 20
-0.9180749644115023
 30
0.0
 10
-8.855924788493389
 20
-0.9242557694458211
 30
0.0
 10
-8.861386236308085
 20
-0.9304343010232829
 30
0.0
 10
-8.865899305351438
 20
-0.9358715325281965
 30
0.0
 10
-8.869121735253493
 20
-0.9400843731260549
 30
0.0
 10
-8.872342493794413
 20
-0.9442950286712488
 30
0.0
 10
-8.874363849870581
 20
-0.9473975139725752
 30
0.0
 10
-8.875037861965502
 20
-0.9491216019714412
 30
0.0
 10
-8.875211910121327
 20
-0.9495668081317916
 30
0.0
 10
-8.875299113776641
 20
-0.949924544246798
 30
0.0
 10
-8.875299113776641
 20
-0.9501928278127563
 30
0.0
  0
LINE
  5
239D
330
2364
100
AcDbEntity
  8
AM_0
 62
     6
100
AcDbLine
 10
-8.813535622057251
 20
-0.2795001481829189
 30
0.0
 11
-9.005063030730021
 21
-0.3672514158057396
 31
0.0
  0
ARC
  5
239E
330
2364
100
AcDbEntity
  8
AM_0
 62
     6
100
AcDbCircle
 10
-9.275299113776263
 20
0.0323991193186686
 30
0.0
 40
0.3528208577250036
100
AcDbArc
 50
247.4825367501432
 51
292.5174632498758
  0
LINE
  5
239F
330
2364
100
AcDbEntity
  8
AM_0
 62
     6
100
AcDbLine
 10
-9.601944563972033
 20
-0.205772414501979
 30
0.0
 11
-9.410417155299393
 21
-0.2935236821247429
 31
0.0
  0
LINE
  5
23A0
330
2364
100
AcDbEntity
  8
AM_0
 62
     6
100
AcDbLine
 10
-9.140181072253019
 20
-0.2935236821247571
 30
0.0
 11
-8.94865366358038
 21
-0.2057724145019932
 31
0.0
  0
ARC
  5
23A1
330
2364
100
AcDbEntity
  8
AM_0
 62
     6
100
AcDbCircle
 10
-9.828736930338159
 20
-0.7411283188128266
 30
0.0
 40
0.5814126948411312
100
AcDbArc
 50
67.04106824346943
 51
90.95241080746651
  0
LINE
  5
23A2
330
2364
100
AcDbEntity
  8
AM_0
 62
     6
100
AcDbLine
 10
-9.838401136637507
 20
-0.1597959484437013
 30
0.0
 11
-9.875299113776172
 21
-0.1597959484437013
 31
0.0
  0
LINE
  5
23A3
330
2364
100
AcDbEntity
  8
AM_0
 62
     6
100
AcDbLine
 10
-9.875299113776172
 20
-0.1597959484437013
 30
0.0
 11
-9.875299113776172
 21
-0.2597959484436672
 31
0.0
  0
LINE
  5
23A4
330
2364
100
AcDbEntity
  8
AM_0
 62
     6
100
AcDbLine
 10
-9.875299113776172
 20
-0.2597959484436672
 30
0.0
 11
-9.838401136637507
 21
-0.2597959484436672
 31
0.0
  0
ARC
  5
23A5
330
2364
100
AcDbEntity
  8
AM_0
 62
     6
100
AcDbCircle
 10
-9.834259333938526
 20
-0.5089383928916221
 30
0.0
 40
0.2491768692217112
100
AcDbArc
 50
67.04106824368878
 51
90.95241080727758
  0
ARC
  5
23A6
330
2364
100
AcDbEntity
  8
AM_0
 62
     6
100
AcDbCircle
 10
-8.716338893614143
 20
-0.5089383928905562
 30
0.0
 40
0.2491768692206279
100
AcDbArc
 50
89.04758919266214
 51
112.9589317563597
  0
LINE
  5
23A7
330
2364
100
AcDbEntity
  8
AM_0
 62
     6
100
AcDbLine
 10
-8.712197090914905
 20
-0.2597959484436814
 30
0.0
 11
-7.725299113776193
 21
-0.2597959484436956
 31
0.0
  0
LWPOLYLINE
  5
23A8
330
2364
100
AcDbEntity
  8
AM_0
 62
     6
100
AcDbPolyline
 90
        9
 70
   128
 43
0.0
 10
-7.725299113776193
 20
-0.2597959484436956
 10
-7.705790081574653
 20
-0.2588352124639073
 10
-7.687030770539696
 20
-0.2559899250692865
 10
-7.669742090474236
 20
-0.2513694290588546
 10
-7.654588435657664
 20
-0.245151287503063
 10
-7.642152152545968
 20
-0.23757446009472
 10
-7.632911160525218
 20
-0.2289301200619889
 10
-7.627220585735861
 20
-0.2195504645445112
 10
-7.625299113776285
 20
-0.209795948443741
  0
LINE
  5
23A9
330
2364
100
AcDbEntity
  8
AM_0
 62
     6
100
AcDbLine
 10
-7.625299113776285
 20
-0.209795948443741
 30
0.0
 11
-7.625299113776285
 21
-0.1597959484437297
 31
0.0
  0
LINE
  5
23AA
330
2364
100
AcDbEntity
  8
AM_0
 62
     6
100
AcDbLine
 10
-7.625299113776285
 20
-0.1597959484437297
 30
0.0
 11
-8.712197090914905
 21
-0.1597959484437155
 31
0.0
  0
ARC
  5
23AB
330
2364
100
AcDbEntity
  8
AM_0
 62
     6
100
AcDbCircle
 10
-8.721861297214735
 20
-0.741128318810965
 30
0.0
 40
0.5814126948392265
100
AcDbArc
 50
89.04758919248704
 51
112.9589317565579
  0
SPLINE
  5
23AC
330
2364
100
AcDbEntity
  8
AM_0
 62
     6
100
AcDbSpline
210
0.0
220
0.0
230
1.0
 70
     8
 71
     3
 72
     8
 73
     4
 74
     0
 42
0.000000001
 43
0.0000000001
 40
0.0
 40
0.0
 40
0.0
 40
0.0
 40
0.0000190990060785
 40
0.0000190990060785
 40
0.0000190990060785
 40
0.0000190990060785
 10
-8.798731696799286
 20
-0.8686215908582395
 30
0.0
 10
-8.803931825449531
 20
-0.8722385049665462
 30
0.0
 10
-8.808926270986894
 20
-0.8763178508113893
 30
0.0
 10
-8.813535622057264
 20
-0.8806854244086679
 30
0.0
  0
ARC
  5
23AD
330
2364
100
AcDbEntity
  8
AM_0
 62
     6
100
AcDbCircle
 10
-8.712294785387321
 20
-0.9931429106829767
 30
0.0
 40
0.151581327165764
100
AcDbArc
 50
89.96307275148934
 51
124.7665839602185
  0
ARC
  5
23AE
330
2364
100
AcDbEntity
  8
AM_0
 62
     6
100
AcDbCircle
 10
-9.838303442165006
 20
-0.9931429106827918
 30
0.0
 40
0.1515813271655457
100
AcDbArc
 50
55.23341603981219
 51
90.03692724855543
  0
SPLINE
  5
23AF
330
2364
100
AcDbEntity
  8
AM_0
 62
     6
100
AcDbSpline
210
0.0
220
0.0
230
1.0
 70
     8
 71
     3
 72
     8
 73
     4
 74
     0
 42
0.000000001
 43
0.0000000001
 40
0.0
 40
0.0
 40
0.0
 40
0.0
 40
0.0000190990060785
 40
0.0000190990060785
 40
0.0000190990060785
 40
0.0000190990060785
 10
-9.737062605495175
 20
-0.8806854244085966
 30
0.0
 10
-9.741671956565546
 20
-0.8763178508113185
 30
0.0
 10
-9.746666402103024
 20
-0.8722385049665318
 30
0.0
 10
-9.751866530753268
 20
-0.8686215908582255
 30
0.0
  0
LINE
  5
23B0
330
2364
100
AcDbEntity
  8
AM_0
 62
     6
100
AcDbLine
 10
-7.725299113776206
 20
-0.8415616149994207
 30
0.0
 11
-8.712197090914919
 21
-0.8415616149994065
 31
0.0
  0
ARC
  5
23B1
330
2364
100
AcDbEntity
  8
AM_0
 62
     6
100
AcDbCircle
 10
-7.724545122294506
 20
-0.7423155174143972
 30
0.0
 40
0.0992489616520521
100
AcDbArc
 50
269.564721438615
 51
359.5580050726036
  0
LINE
  5
23B2
330
2364
100
AcDbEntity
  8
AM_0
 62
     6
100
AcDbLine
 10
-7.625299113776285
 20
-0.209795948443741
 30
0.0
 11
-7.625299113776298
 21
-0.7430811427864798
 31
0.0
  0
LINE
  5
23B3
330
2364
100
AcDbEntity
  8
AM_0
 62
     6
100
AcDbLine
 10
-9.875299113776172
 20
-0.2597959484436672
 30
0.0
 11
-9.875299113776184
 21
-0.8415616149993923
 31
0.0
  0
LINE
  5
23B4
330
2364
100
AcDbEntity
  8
AM_0
 62
     6
100
AcDbLine
 10
-9.83840113663752
 20
-0.8415616149993923
 30
0.0
 11
-9.875299113776184
 21
-0.8415616149993923
 31
0.0
  0
LINE
  5
23B5
330
2364
100
AcDbEntity
  8
0
 62
    41
100
AcDbLine
 10
-7.110299113776284
 20
-0.7047959484437172
 30
0.0
 11
-7.110299113776284
 21
0.2952040515562828
 31
0.0
  0
HATCH
  5
23B6
330
2364
100
AcDbEntity
  8
AM_8
 62
    41
100
AcDbHatch
 10
0.0
 20
0.0
 30
0.0
210
0.0
220
0.0
230
1.0
  2
ANSI31
 70
     0
 71
     0
 91
        2
 92
        1
 93
        3
 72
     1
 10
-8.59017871845446
 20
0.8952040515562984
 11
-8.590281054482126
 21
0.8952040515562984
 72
     1
 10
-8.590281054482126
 20
0.8952040515562984
 11
-8.590281054482126
 21
0.8951860050379778
 72
     1
 10
-8.590281054482126
 20
0.8951860050379778
 11
-8.59017871845446
 21
0.8952040515562984
 97
        0
 92
        1
 93
       26
 72
     1
 10
-9.842375412316872
 20
0.9025766375319363
 11
-9.838348519954987
 21
0.8952040515562984
 72
     1
 10
-9.83834851995499
 20
0.8952040515562984
 11
-8.810299113776274
 21
0.8952040515562984
 72
     1
 10
-8.810299113776274
 20
0.8952040515562984
 11
-8.110299113776285
 21
1.095204051556279
 72
     1
 10
-8.110299113776285
 20
1.095204051556279
 11
-7.110299113776285
 21
1.095204051556279
 72
     1
 10
-7.110299113776284
 20
1.095204051556279
 11
-7.110299113776284
 21
1.295204051556297
 72
     1
 10
-7.110299113776284
 20
1.295204051556297
 11
-7.439388767214372
 21
1.485204051556293
 72
     1
 10
-7.439388767214372
 20
1.485204051556293
 11
-7.590299113776286
 21
1.485204051556293
 72
     1
 10
-7.590299113776286
 20
1.485204051556293
 11
-7.590299113776286
 21
1.265204051556274
 72
     1
 10
-7.590299113776286
 20
1.265204051556274
 11
-8.190299113776298
 21
1.265204051556274
 72
     1
 10
-8.190299113776298
 20
1.265204051556274
 11
-8.610299113776072
 21
1.205204051556292
 72
     1
 10
-8.610299113776072
 20
1.205204051556292
 11
-9.806093170178703
 21
1.205204051556292
 72
     1
 10
-9.806093170178703
 20
1.205204051556292
 11
-9.82313154511706
 21
1.17553459340545
 72
     1
 10
-9.823131545117055
 20
1.17553459340545
 11
-9.837227039149642
 21
1.147481228734512
 72
     1
 10
-9.837227039149642
 20
1.147481228734512
 11
-9.848576815162518
 21
1.120984011703725
 72
     1
 10
-9.848576815162518
 20
1.120984011703725
 11
-9.857378036041831
 21
1.09598299647304
 72
     1
 10
-9.857378036041827
 20
1.09598299647304
 11
-9.863827864673647
 21
1.072418237202511
 72
     1
 10
-9.863827864673647
 20
1.072418237202511
 11
-9.868123463944012
 21
1.050229788052404
 72
     1
 10
-9.868123463944012
 20
1.050229788052404
 11
-9.870461996739047
 21
1.029357703182711
 72
     1
 10
-9.870461996739047
 20
1.029357703182711
 11
-9.871040625944822
 21
1.009742036753535
 72
     1
 10
-9.871040625944822
 20
1.009742036753535
 11
-9.870056514447419
 21
0.9913228429249798
 72
     1
 10
-9.870056514447419
 20
0.9913228429249798
 11
-9.867706825132923
 21
0.9740401758571335
 72
     1
 10
-9.867706825132923
 20
0.9740401758571335
 11
-9.864188720887405
 21
0.9578340897100757
 72
     1
 10
-9.864188720887405
 20
0.9578340897100757
 11
-9.859699364596963
 21
0.9426446386439479
 72
     1
 10
-9.859699364596966
 20
0.9426446386439479
 11
-9.854435919147682
 21
0.9284118768188561
 72
     1
 10
-9.854435919147682
 20
0.9284118768188561
 11
-9.848595547425595
 21
0.9150758583947505
 72
     1
 10
-9.848595547425599
 20
0.9150758583947505
 11
-9.842375412316872
 21
0.9025766375319363
 97
        0
 75
     1
 76
     1
 52
90.0
 41
0.05
 77
     0
 78
     1
 53
135.0
 43
-45.04414296168282
 44
-76.9989190355261
 45
-0.1122532015133644
 46
-0.1122532015133644
 79
     0
 98
        1
 10
-8.651599428312799
 20
1.077187780589824
1001
GRADIENTCOLOR1ACI
1070
     5
1001
GRADIENTCOLOR2ACI
1070
     2
1001
ACAD
1010
0.0
1020
0.0
1030
0.0
  0
LINE
  5
23B7
330
2364
100
AcDbEntity
  8
AM_0
 62
    41
100
AcDbLine
 10
-7.110299113776284
 20
1.095204051556279
 30
0.0
 11
-8.110299113776285
 21
1.095204051556279
 31
0.0
  0
LINE
  5
23B8
330
2364
100
AcDbEntity
  8
AM_0
 62
    41
100
AcDbLine
 10
-7.110299113776284
 20
1.095204051556279
 30
0.0
 11
-7.110299113776284
 21
-0.5047959484437145
 31
0.0
  0
LINE
  5
23B9
330
2364
100
AcDbEntity
  8
AM_0
 62
    41
100
AcDbLine
 10
-8.810299113776286
 20
0.8952040515562913
 30
0.0
 11
-9.838405291390717
 21
0.8952040515562913
 31
0.0
  0
LINE
  5
23BA
330
2364
100
AcDbEntity
  8
AM_0
 62
    41
100
AcDbLine
 10
-9.875299113776172
 20
-0.6147959484436996
 30
0.0
 11
-9.902456573035301
 21
-0.6147959484436996
 31
0.0
  0
LINE
  5
23BB
330
2364
100
AcDbEntity
  8
AM_0
 62
    41
100
AcDbLine
 10
-9.902456692244591
 20
1.205204051556292
 30
0.0
 11
-8.610299113776115
 21
1.205204051556292
 31
0.0
  0
LINE
  5
23BC
330
2364
100
AcDbEntity
  8
AM_0
 62
    41
100
AcDbLine
 10
-7.590299113776286
 20
-0.6747959484437091
 30
0.0
 11
-7.625299113776285
 21
-0.6747959484437091
 31
0.0
  0
LINE
  5
23BD
330
2364
100
AcDbEntity
  8
AM_0
 62
    41
100
AcDbLine
 10
-7.439388767214372
 20
-0.8947959484437005
 30
0.0
 11
-7.590299113776286
 21
-0.8947959484437005
 31
0.0
  0
LINE
  5
23BE
330
2364
100
AcDbEntity
  8
AM_0
 62
    41
100
AcDbLine
 10
-7.590299113776286
 20
1.485204051556293
 30
0.0
 11
-7.439388767214372
 21
1.485204051556293
 31
0.0
  0
LINE
  5
23BF
330
2364
100
AcDbEntity
  8
AM_0
 62
    41
100
AcDbLine
 10
-7.110299113776284
 20
-0.7047959484437031
 30
0.0
 11
-7.439388767214372
 21
-0.8947959484437005
 31
0.0
  0
LINE
  5
23C0
330
2364
100
AcDbEntity
  8
AM_0
 62
    41
100
AcDbLine
 10
-7.439388767214372
 20
1.485204051556293
 30
0.0
 11
-7.110299113776284
 21
1.295204051556297
 31
0.0
  0
LINE
  5
23C1
330
2364
100
AcDbEntity
  8
AM_0
 62
    41
100
AcDbLine
 10
-7.590299113776286
 20
1.265204051556274
 30
0.0
 11
-7.590299113776286
 21
1.485204051556293
 31
0.0
  0
LINE
  5
23C2
330
2364
100
AcDbEntity
  8
AM_0
 62
    41
100
AcDbLine
 10
-9.440299113776283
 20
0.8652040515562902
 30
0.0
 11
-9.440299113776283
 21
0.8652040515562902
 31
0.0
  0
LINE
  5
23C3
330
2364
100
AcDbEntity
  8
AM_0
 62
    41
100
AcDbLine
 10
-7.110299113776284
 20
1.295204051556297
 30
0.0
 11
-7.110299113776284
 21
1.095204051556279
 31
0.0
  0
LINE
  5
23C4
330
2364
100
AcDbEntity
  8
AM_0
 62
    41
100
AcDbLine
 10
-7.590299113776286
 20
-0.8947959484437005
 30
0.0
 11
-7.590299113776286
 21
0.2952040515562828
 31
0.0
  0
LINE
  5
23C5
330
2364
100
AcDbEntity
  8
AM_0
 62
    41
100
AcDbLine
 10
-8.610299113776298
 20
0.2952040515562828
 30
0.0
 11
-8.610299113776298
 21
-0.1597959484437155
 31
0.0
  0
LINE
  5
23C6
330
2364
100
AcDbEntity
  8
AM_0
 62
    41
100
AcDbLine
 10
-7.110299113776284
 20
-0.5047959484437145
 30
0.0
 11
-7.110299113776284
 21
-0.7047959484437031
 31
0.0
  0
LINE
  5
23C7
330
2364
100
AcDbEntity
  8
0
 62
    41
100
AcDbLine
 10
-8.190299113776298
 20
-0.1597959484437297
 30
0.0
 11
-8.190299113776298
 21
0.2952040515562828
 31
0.0
  0
LINE
  5
23C8
330
2364
100
AcDbEntity
  8
0
 62
    41
100
AcDbLine
 10
-7.439388767211176
 20
-0.894795894522673
 30
0.0
 11
-7.43931823880792
 21
0.2952040515562828
 31
0.0
  0
LINE
  5
23C9
330
2364
100
AcDbEntity
  8
AM_0
 62
    41
100
AcDbLine
 10
-8.190299113776298
 20
1.265204051556274
 30
0.0
 11
-8.610299113776298
 21
1.205204051556264
 31
0.0
  0
LINE
  5
23CA
330
2364
100
AcDbEntity
  8
AM_0
 62
    41
100
AcDbLine
 10
-7.590299113776286
 20
1.265204051556274
 30
0.0
 11
-8.190299113776298
 21
1.265204051556274
 31
0.0
  0
LINE
  5
23CB
330
2364
100
AcDbEntity
  8
0
 62
    41
100
AcDbLine
 10
-8.110299113776285
 20
1.095204051556279
 30
0.0
 11
-8.810299113776286
 21
0.8952040515562913
 31
0.0
  0
ARC
  5
23CC
330
2364
100
AcDbEntity
  8
0
 62
     6
100
AcDbCircle
 10
-9.273923026109279
 20
1.370206418584871
 30
0.0
 40
0.3999999999999995
100
AcDbArc
 50
46.89976167693987
 51
131.8997616769448
  0
LINE
  5
23CD
330
2364
100
AcDbEntity
  8
0
 62
     6
100
AcDbLine
 10
-9.672057266260386
 20
1.550391350215164
 30
0.0
 11
-9.675673627311972
 21
1.205204051556278
 31
0.0
  0
LINE
  5
23CE
330
2364
100
AcDbEntity
  8
0
 62
     6
100
AcDbLine
 10
-9.541054809903291
 20
1.66793214822043
 30
0.0
 11
-9.672057266260386
 21
1.550391350215164
 31
0.0
  0
LINE
  5
23CF
330
2364
100
AcDbEntity
  8
0
 62
     6
100
AcDbLine
 10
-8.872101165620982
 20
1.542010595487055
 30
0.0
 11
-9.000612301788898
 21
1.662270192393704
 31
0.0
  0
LINE
  5
23D0
330
2364
100
AcDbEntity
  8
0
 62
     6
100
AcDbLine
 10
-8.872101165620982
 20
1.542010595487055
 30
0.0
 11
-8.875629725542259
 21
1.205204051556292
 31
0.0
  0
ARC
  5
23D1
330
2364
100
AcDbEntity
  8
0
 62
     6
100
AcDbCircle
 10
-9.273923026109279
 20
1.370206418584871
 30
0.0
 40
0.2000000000000059
100
AcDbArc
 50
46.89976167694293
 51
131.8997616769382
  0
LINE
  5
23D2
330
2364
100
AcDbEntity
  8
0
 62
     6
100
AcDbLine
 10
-9.008756527781166
 20
1.395978708582631
 30
0.0
 11
-9.010755181966819
 21
1.205204051556292
 31
0.0
  0
LINE
  5
23D3
330
2364
100
AcDbEntity
  8
0
 62
     6
100
AcDbLine
 10
-9.137267663949096
 20
1.516238305489309
 30
0.0
 11
-9.008756527781166
 21
1.395978708582631
 31
0.0
  0
LINE
  5
23D4
330
2364
100
AcDbEntity
  8
0
 62
     6
100
AcDbLine
 10
-9.538491374363395
 20
1.401528485397377
 30
0.0
 11
-9.407488918006272
 21
1.51906928340267
 31
0.0
  0
LINE
  5
23D5
330
2364
100
AcDbEntity
  8
0
 62
     6
100
AcDbLine
 10
-9.538491374363395
 20
1.401528485397377
 30
0.0
 11
-9.540548170887426
 21
1.205204051556292
 31
0.0
  0
LINE
  5
23D6
330
2364
100
AcDbEntity
  8
0
 62
     6
100
AcDbLine
 10
-8.872101165620982
 20
1.542010595487055
 30
0.0
 11
-9.008756527781166
 21
1.395978708582631
 31
0.0
  0
LINE
  5
23D7
330
2364
100
AcDbEntity
  8
0
 62
     6
100
AcDbLine
 10
-9.538491374363395
 20
1.401528485397377
 30
0.0
 11
-9.672057266260386
 21
1.550391350215164
 31
0.0
  0
HATCH
  5
23D8
330
2364
100
AcDbEntity
  8
AM_8
100
AcDbHatch
 10
0.0
 20
0.0
 30
0.0
210
0.0
220
0.0
230
1.0
  2
_U
 70
     0
 71
     0
 91
        1
 92
        1
 93
        8
 72
     1
 10
-9.008756527781166
 20
1.395978708582631
 11
-9.13726766394908
 21
1.516238305489309
 72
     2
 10
-9.273923026109279
 20
1.370206418584871
 40
0.2000000000000071
 50
46.89976167694452
 51
131.8997616769378
 73
     1
 72
     1
 10
-9.407488918006272
 20
1.51906928340267
 11
-9.538491374363395
 21
1.401528485397363
 72
     1
 10
-9.538491374363395
 20
1.401528485397377
 11
-9.672057266260386
 21
1.550391350215164
 72
     1
 10
-9.672057266260386
 20
1.550391350215164
 11
-9.541054809903291
 21
1.667932148220444
 72
     2
 10
-9.273923026109306
 20
1.370206418584871
 40
0.3999999999999899
 50
228.1002383230554
 51
313.1002383230608
 73
     0
 72
     1
 10
-9.000612301788898
 20
1.662270192393704
 11
-8.872101165620982
 21
1.542010595487055
 72
     1
 10
-8.872101165620982
 20
1.542010595487055
 11
-9.00875652778118
 21
1.395978708582631
 97
        0
 75
     0
 76
     0
 52
225.0
 41
0.125
 77
     0
 78
     1
 53
225.0
 43
9.600876178075855
 44
5.672333588421893
 45
0.0883883476483184
 46
-0.0883883476483185
 79
     0
 98
        1
 10
-23.7739937376663
 20
5.847155009293686
1001
GENIUS_GENODEF_13
1002
{
1000
HIER
1070
     0
1002
}
1002
{
1000
MANEDIT
1070
     0
1002
}
1002
{
1000
NOSEL
1070
     0
1002
}
1002
{
1000
BEHIND
1070
     0
1002
}
1002
{
1000
OTHER
1070
     0
1002
}
1002
{
1000
REACTOR
1002
}
1001
GENIUS_GENOBJ-N-HTC_13
1002
{
1000
OWNER
1000
GEN
1002
}
1001
GENIUS_GENHATCH_13
1002
{
1000
DATA
1040
45.0
1042
-2.5
1000
_U
1070
     0
1011
-9.041514137114281
1021
1.584542782310136
1031
0.0
1002
}
1002
{
1000
UCS
1010
0.0
1020
0.0
1030
0.0
1010
1.0
1020
0.0
1030
0.0
1010
0.0
1020
1.0
1030
0.0
1002
}
  0
LINE
  5
23D9
330
2364
100
AcDbEntity
  8
AM_0
 62
    41
100
AcDbLine
 10
-8.810299113776286
 20
0.8952040515562913
 30
0.0
 11
-8.810299113776286
 21
0.8652041040083702
 31
0.0
  0
LINE
  5
23DA
330
2364
100
AcDbEntity
  8
0
 62
    41
100
AcDbLine
 10
-8.110299113776285
 20
1.095204051556279
 30
0.0
 11
-8.110299113776285
 21
0.4952040992399846
 31
0.0
  0
SPLINE
  5
23DB
330
2364
100
AcDbEntity
  8
0
  6
Continuous
 48
0.5
370
    15
100
AcDbSpline
210
0.0
220
0.0
230
1.0
 70
     8
 71
     3
 72
    11
 73
     7
 74
     0
 42
0.000000001
 43
0.0000000001
 40
0.0414361543778235
 40
0.0414361543778235
 40
0.0414361543778235
 40
0.0414361543778235
 40
0.3095469987203533
 40
0.6368210375274544
 40
0.9610208474209631
 40
1.265060173374035
 40
1.265060173374035
 40
1.265060173374035
 40
1.265060173374035
 10
-9.806093170178703
 20
1.205204051556292
 30
0.0
 10
-9.917343254080883
 20
1.022552638162237
 30
0.0
 10
-9.789222416461999
 20
0.8171966829158066
 30
0.0
 10
-9.756247970856858
 20
0.7454812575035561
 30
0.0
 10
-9.700528790155928
 20
0.5875403144498108
 30
0.0
 10
-9.79456334990172
 20
0.3954839129501693
 30
0.0
 10
-9.829978949528547
 20
0.297651571020495
 30
0.0
  0
LINE
  5
23DC
330
2364
100
AcDbEntity
  8
0
  6
Continuous
 62
     3
 48
0.5
370
    30
100
AcDbLine
 10
-10.66029935219489
 20
0.2952041707655297
 30
0.0
 11
-10.66029935219489
 21
2.295203932347035
 31
0.0
1001
DIMEXPLODE
1070
     0
  0
LINE
  5
23DD
330
2364
100
AcDbEntity
  8
PV0005_1
  6
Continuous
 62
     3
 48
0.5
370
    30
100
AcDbLine
 10
-10.2421013627311
 20
2.295204051556281
 30
0.0
 11
-9.946390679862098
 21
1.999493368687281
 31
0.0
1001
DIMEXPLODE
1070
     0
  0
LINE
  5
23DE
330
2364
100
AcDbEntity
  8
PV0005_1
  6
Continuous
 62
     3
 48
0.5
370
    30
100
AcDbLine
 10
-9.902456692244591
 20
0.2952040515562828
 30
0.0
 11
-9.902456692244591
 21
1.893427380146681
 31
0.0
1001
DIMEXPLODE
1070
     0
  0
LINE
  5
23DF
330
2364
100
AcDbEntity
  8
PV0005_1
  6
Continuous
 62
     3
 48
0.5
370
    30
100
AcDbLine
 10
-10.2421013627311
 20
0.2952040515562828
 30
0.0
 11
-10.2421013627311
 21
2.295204051556281
 31
0.0
1001
DIMEXPLODE
1070
     0
  0
ARC
  5
23E0
330
2364
100
AcDbEntity
  8
PV0005_1
  6
Continuous
 62
     3
 48
0.5
370
    30
100
AcDbCircle
 10
-10.0524566684028
 20
1.893427380146681
 30
0.0
 40
0.1500000059605
100
AcDbArc
 50
359.9999988616362
 51
45.00000125223682
1001
DIMEXPLODE
1070
     0
  0
CIRCLE
  5
23E1
330
2364
100
AcDbEntity
  8
0
  6
Continuous
 62
     3
 48
0.5
370
    30
100
AcDbCircle
 10
9.639405724022614
 20
0.2952040515562828
 30
0.0
 40
0.6000000238419
  0
CIRCLE
  5
23E2
330
2364
100
AcDbEntity
  8
0
 62
     3
100
AcDbCircle
 10
9.639405724022614
 20
0.2952040515562828
 30
0.0
 40
0.8007752233724261
  0
CIRCLE
  5
23E3
330
2364
100
AcDbEntity
  8
0
 62
     3
100
AcDbCircle
 10
9.639405724022614
 20
0.2952040515562828
 30
0.0
 40
1.000775032637533
  0
CIRCLE
  5
23E4
330
2364
100
AcDbEntity
  8
0
 62
     3
100
AcDbCircle
 10
9.639405724022614
 20
0.2952040515562828
 30
0.0
 40
1.190775089858027
  0
CIRCLE
  5
23E5
330
2364
100
AcDbEntity
  8
0
 62
     3
100
AcDbCircle
 10
9.639405724022614
 20
0.2952040515562828
 30
0.0
 40
0.5699999999999843
  0
CIRCLE
  5
23E6
330
2364
100
AcDbEntity
  8
0
 62
     2
100
AcDbCircle
 10
9.639405724022614
 20
0.2952040515562828
 30
0.0
 40
0.0499999523163108
  0
CIRCLE
  5
23E7
330
2364
100
AcDbEntity
  8
0
 62
     2
100
AcDbCircle
 10
9.639405724022614
 20
0.2952040515562828
 30
0.0
 40
0.1999999284743961
  0
CIRCLE
  5
23E8
330
2364
100
AcDbEntity
  8
0
 62
     4
100
AcDbCircle
 10
9.639405724022614
 20
0.2952040515562828
 30
0.0
 40
0.4699999094009099
  0
LINE
  5
23E9
330
2364
100
AcDbEntity
  8
AM_7
100
AcDbLine
 10
9.639405724022614
 20
0.2952040515562828
 30
0.0
 11
7.479405724022617
 21
0.295204051556297
 31
0.0
1001
GENIUS_GENOREF_13
1005
240B
  0
LINE
  5
23EA
330
2364
100
AcDbEntity
  8
AM_7
100
AcDbLine
 10
9.639405724022614
 20
0.2952040515562828
 30
0.0
 11
9.639405724022635
 21
2.455204051556293
 31
0.0
1001
GENIUS_GENOREF_13
1005
240B
  0
LINE
  5
23EB
330
2364
100
AcDbEntity
  8
AM_7
100
AcDbLine
 10
9.639405724022614
 20
0.2952040515562828
 30
0.0
 11
11.79940572402261
 21
0.2952040515562544
 31
0.0
1001
GENIUS_GENOREF_13
1005
240B
  0
LINE
  5
23EC
330
2364
100
AcDbEntity
  8
AM_7
100
AcDbLine
 10
9.639405724022614
 20
0.2952040515562828
 30
0.0
 11
9.639405724022584
 21
-1.864795948443713
 31
0.0
1001
GENIUS_GENOREF_13
1005
240B
  0
ARC
  5
23ED
330
2364
100
AcDbEntity
  8
AM_0
 62
     6
100
AcDbCircle
 10
9.639405724022614
 20
0.2952040515562828
 30
0.0
 40
1.520000000000004
100
AcDbArc
 50
240.0000000000009
 51
145.9616238009661
  0
ARC
  5
23EE
330
2364
100
AcDbEntity
  8
AM_0
 62
     6
100
AcDbCircle
 10
8.462704485212857
 20
1.090046296648722
 30
0.0
 40
0.1
100
AcDbArc
 50
145.9616238009661
 51
240.0032160489971
1001
GENIUS_GENOBJ-N-FIL_13
1002
{
1000
OWNER
1000
GEN
1002
}
1001
GENIUS_GENODEF_13
1002
{
1000
HIER
1070
     0
1002
}
1002
{
1000
MANEDIT
1070
     0
1002
}
1002
{
1000
NOSEL
1070
     0
1002
}
1002
{
1000
BEHIND
1070
     0
1002
}
1002
{
1000
OTHER
1070
     0
1002
}
1002
{
1000
REACTOR
1002
}
  0
ARC
  5
23EF
330
2364
100
AcDbEntity
  8
AM_0
 62
     6
100
AcDbCircle
 10
9.639405724022614
 20
0.2952040515562828
 30
0.0
 40
1.520000000000008
100
AcDbArc
 50
214.0382565958756
 51
240.0000000000009
  0
ARC
  5
23F0
330
2364
100
AcDbEntity
  8
AM_0
 62
     6
100
AcDbCircle
 10
8.462702826006943
 20
-0.4996357372071998
 30
0.0
 40
0.1
100
AcDbArc
 50
119.9999999999987
 51
214.0382565958756
1001
GENIUS_GENODEF_13
1002
{
1000
HIER
1070
     0
1002
}
1002
{
1000
MANEDIT
1070
     0
1002
}
1002
{
1000
NOSEL
1070
     0
1002
}
1002
{
1000
BEHIND
1070
     0
1002
}
1002
{
1000
OTHER
1070
     0
1002
}
1002
{
1000
REACTOR
1002
}
1001
GENIUS_GENOBJ-N-FIL_13
1002
{
1000
OWNER
1000
GEN
1002
}
  0
ARC
  5
23F1
330
2364
100
AcDbEntity
  8
AM_0
 62
     6
100
AcDbCircle
 10
8.669418286915988
 20
-0.3225534832867538
 30
0.0
 40
0.0500000000000119
100
AcDbArc
 50
176.4143021380977
 51
212.4919063689811
  0
ARC
  5
23F2
330
2364
100
AcDbEntity
  8
AM_0
 62
     6
100
AcDbCircle
 10
8.669429068966712
 20
0.9129785157796844
 30
0.0
 40
0.0500000000000292
100
AcDbArc
 50
147.5070936310177
 51
183.5846978618874
  0
LINE
  5
23F3
330
2364
100
AcDbEntity
  8
AM_0
 62
     6
100
AcDbLine
 10
9.432609332482746
 20
-0.8774768799303982
 30
0.0
 11
9.431007285088671
 21
-0.8865616149994366
 31
0.0
  0
ARC
  5
23F4
330
2364
100
AcDbEntity
  8
AM_0
 62
     6
100
AcDbCircle
 10
9.639405724022614
 20
0.2952040515562828
 30
0.0
 40
1.199999999999999
100
AcDbArc
 50
212.49190636898
 51
259.9989999999987
  0
LINE
  5
23F5
330
2364
100
AcDbEntity
  8
AM_0
 62
     6
100
AcDbLine
 10
9.432650266895427
 20
1.467892200884364
 30
0.0
 11
9.431048536619398
 21
1.47697699186986
 31
0.0
  0
ARC
  5
23F6
330
2364
100
AcDbEntity
  8
AM_0
 62
     6
100
AcDbCircle
 10
9.639405724022614
 20
0.2952040515562828
 30
0.0
 40
1.200000000000005
100
AcDbArc
 50
99.99899999999858
 51
147.5070936310195
  0
SPLINE
  5
23F7
330
2364
100
AcDbEntity
  8
AM_0
 62
     6
100
AcDbSpline
210
0.0
220
0.0
230
1.0
 70
     8
 71
     3
 72
     8
 73
     4
 74
     0
 42
0.000000001
 43
0.0000000001
 40
0.0
 40
0.0
 40
0.0
 40
0.0
 40
0.0000190990060785
 40
0.0000190990060785
 40
0.0000190990060785
 40
0.0000190990060785
 10
9.425995610692719
 20
1.516100977683264
 30
0.0
 10
9.425538939351595
 20
1.511733420024143
 30
0.0
 10
9.425639892001679
 20
1.507654070652931
 30
0.0
 10
9.42627759038133
 20
1.50403713428261
 30
0.0
  0
LINE
  5
23F8
330
2364
100
AcDbEntity
  8
AM_0
 62
     6
100
AcDbLine
 10
9.431048536619398
 20
1.47697699186986
 30
0.0
 11
9.42627759038133
 21
1.50403713428261
 31
0.0
  0
SPLINE
  5
23F9
330
2364
100
AcDbEntity
  8
AM_0
 62
     6
100
AcDbSpline
210
0.0
220
0.0
230
1.0
 70
     8
 71
     3
 72
     8
 73
     4
 74
     0
 42
0.000000001
 43
0.0000000001
 40
0.0
 40
0.0
 40
0.0
 40
0.0
 40
0.0000190990060785
 40
0.0000190990060785
 40
0.0000190990060785
 40
0.0000190990060785
 10
10.79286460397278
 20
0.7150059518701683
 30
0.0
 10
10.79631585579091
 20
0.7162620365879633
 30
0.0
 10
10.79989922044642
 20
0.7182141586322503
 30
0.0
 10
10.8034533906924
 20
0.7207933023820062
 30
0.0
  0
SPLINE
  5
23FA
330
2364
100
AcDbEntity
  8
AM_0
 62
     6
100
AcDbSpline
210
0.0
220
0.0
230
1.0
 70
     8
 71
     3
 72
     8
 73
     4
 74
     0
 42
0.000000001
 43
0.0000000001
 40
0.0
 40
0.0
 40
0.0
 40
0.0
 40
0.0000190990060785
 40
0.0000190990060785
 40
0.0000190990060785
 40
0.0000190990060785
 10
10.80343853411588
 20
-0.1304258319390357
 30
0.0
 10
10.79988445390117
 20
-0.127846564126898
 30
0.0
 10
10.79630115738972
 20
-0.125894317000828
 30
0.0
 10
10.79284994941932
 20
-0.1246381118123594
 30
0.0
  0
LINE
  5
23FB
330
2364
100
AcDbEntity
  8
AM_0
 62
     6
100
AcDbLine
 10
10.76702970554082
 20
-0.1152398012482791
 30
0.0
 11
10.79284994941932
 21
-0.1246381118123594
 31
0.0
  0
LINE
  5
23FC
330
2364
100
AcDbEntity
  8
AM_0
 62
     6
100
AcDbLine
 10
10.7670440320471
 20
0.7056085426083172
 30
0.0
 11
10.79286460397278
 21
0.7150059518701683
 31
0.0
  0
SPLINE
  5
23FD
330
2364
100
AcDbEntity
  8
AM_0
 62
     6
100
AcDbSpline
210
0.0
220
0.0
230
1.0
 70
     8
 71
     3
 72
     8
 73
     4
 74
     0
 42
0.000000001
 43
0.0000000001
 40
0.0
 40
0.0
 40
0.0
 40
0.0
 40
0.0000190990060785
 40
0.0000190990060785
 40
0.0000190990060785
 40
0.0000190990060785
 10
9.426235394276336
 20
-0.9136215908582412
 30
0.0
 10
9.425597569642196
 20
-0.9172385049665193
 30
0.0
 10
9.425496474596078
 20
-0.9213178508113626
 30
0.0
 10
9.425952993480411
 20
-0.9256854244086696
 30
0.0
  0
LINE
  5
23FE
330
2364
100
AcDbEntity
  8
AM_0
 62
     6
100
AcDbLine
 10
9.431007285088671
 20
-0.8865616149994366
 30
0.0
 11
9.426235394276336
 21
-0.9136215908582412
 31
0.0
  0
SPLINE
  5
23FF
330
2364
100
AcDbEntity
  8
AM_0
 62
     6
100
AcDbSpline
210
0.0
220
0.0
230
1.0
 70
     8
 71
     3
 72
    20
 73
    16
 74
     0
 42
0.000000001
 43
0.0000000001
 40
0.0
 40
0.0
 40
0.0
 40
0.0
 40
0.0000335781964564
 40
0.0000335781964564
 40
0.0000335781964564
 40
0.0000671592877428
 40
0.0000671592877428
 40
0.0000671592877428
 40
0.0001007034734845
 40
0.0001007034734845
 40
0.0001007034734845
 40
0.0001342560508289
 40
0.0001342560508289
 40
0.0001342560508289
 40
0.0001427932918105
 40
0.0001427932918105
 40
0.0001427932918105
 40
0.0001427932918105
 10
9.519023145355726
 20
1.585605133855834
 30
0.0
 10
9.507878803736089
 20
1.58456546905694
 30
0.0
 10
9.49670905978844
 20
1.582133476681292
 30
0.0
 10
9.48643806901556
 20
1.578518153008188
 30
0.0
 10
9.476166506159056
 20
1.574902627965314
 30
0.0
 10
9.466510708569996
 20
1.570004663808048
 30
0.0
 10
9.458269350991939
 20
1.564259488010604
 30
0.0
 10
9.450036743764366
 20
1.55852041221567
 30
0.0
 10
9.442988197694331
 20
1.551779391188375
 30
0.0
 10
9.437701566840299
 20
1.544631585391669
 30
0.0
 10
9.432413593002788
 20
1.537481963809995
 30
0.0
 10
9.428742252857146
 20
1.529729977329366
 30
0.0
 10
9.426986091282484
 20
1.52204642861136
 30
0.0
 10
9.426533246131027
 20
1.520065142929438
 30
0.0
 10
9.42620248604342
 20
1.518079512223749
 30
0.0
 10
9.425995610692806
 20
1.516100977683264
 30
0.0
  0
SPLINE
  5
2400
330
2364
100
AcDbEntity
  8
AM_0
 62
     6
100
AcDbSpline
210
0.0
220
0.0
230
1.0
 70
     8
 71
     3
 72
    20
 73
    16
 74
     0
 42
0.000000001
 43
0.0000000001
 40
0.0
 40
0.0
 40
0.0
 40
0.0
 40
0.000033571749035
 40
0.000033571749035
 40
0.000033571749035
 40
0.0000671442014429
 40
0.0000671442014429
 40
0.0000671442014429
 40
0.0001007043000221
 40
0.0001007043000221
 40
0.0001007043000221
 40
0.0001342458940633
 40
0.0001342458940633
 40
0.0001342458940633
 40
0.0001427926236779
 40
0.0001427926236779
 40
0.0001427926236779
 40
0.0001427926236779
 10
10.80345339069243
 20
0.7207933023819493
 30
0.0
 10
10.80970082111029
 20
0.7253268559258999
 30
0.0
 10
10.81515021688616
 20
0.7316194968213523
 30
0.0
 10
10.81932628648726
 20
0.7391414328003095
 30
0.0
 10
10.82350240425018
 20
0.7466634555282923
 30
0.0
 10
10.82651880503754
 20
0.7556219128444326
 30
0.0
 10
10.82809065575572
 20
0.7652609976071432
 30
0.0
 10
10.82966192830738
 20
0.7748965368701449
 30
0.0
 10
10.82983138568556
 20
0.7854774910911857
 30
0.0
 10
10.82855518460386
 20
0.7961136174010477
 30
0.0
 10
10.82727964544289
 20
0.8067442271253213
 30
0.0
 10
10.82452398395106
 20
0.8177221434403776
 30
0.0
 10
10.82050384532829
 20
0.8281334037862251
 30
0.0
 10
10.81946573678555
 20
0.8308218728465559
 30
0.0
 10
10.81834101899239
 20
0.8334854134385381
 30
0.0
 10
10.81713601356475
 20
0.8361091111945738
 30
0.0
  0
SPLINE
  5
2401
330
2364
100
AcDbEntity
  8
AM_0
 62
     6
100
AcDbSpline
210
0.0
220
0.0
230
1.0
 70
     8
 71
     3
 72
    20
 73
    16
 74
     0
 42
0.000000001
 43
0.0000000001
 40
0.0
 40
0.0
 40
0.0
 40
0.0
 40
0.0000335781964564
 40
0.0000335781964564
 40
0.0000335781964564
 40
0.0000671592877428
 40
0.0000671592877428
 40
0.0000671592877428
 40
0.0001007034734845
 40
0.0001007034734845
 40
0.0001007034734845
 40
0.0001342560508289
 40
0.0001342560508289
 40
0.0001342560508289
 40
0.0001427932918105
 40
0.0001427932918105
 40
0.0001427932918105
 40
0.0001427932918105
 10
10.81711713169842
 20
-0.2457421182949275
 30
0.0
 10
10.82178892638099
 20
-0.2355710029444396
 30
0.0
 10
10.82526763117566
 20
-0.2246817247441442
 30
0.0
 10
10.82727216441831
 20
-0.2139791239762445
 30
0.0
 10
10.82927680931141
 20
-0.2032759270845048
 30
0.0
 10
10.82986294671893
 20
-0.1924647789999625
 30
0.0
 10
10.82900815731817
 20
-0.1824549660769747
 30
0.0
 10
10.8281542754993
 20
-0.1724557811810286
 30
0.0
 10
10.82584065307719
 20
-0.1629810507109966
 30
0.0
 10
10.82229378710297
 20
-0.154828791192628
 30
0.0
 10
10.81874602010454
 20
-0.1466744607239292
 30
0.0
 10
10.81386827295534
 20
-0.139618993651581
 30
0.0
 10
10.80809220536167
 20
-0.1342563387557476
 30
0.0
 10
10.80660278420469
 20
-0.1328735205096478
 30
0.0
 10
10.80504855761484
 20
-0.1315942585184047
 30
0.0
 10
10.80343853411584
 20
-0.1304258319390925
 30
0.0
  0
SPLINE
  5
2402
330
2364
100
AcDbEntity
  8
AM_0
 62
     6
100
AcDbSpline
210
0.0
220
0.0
230
1.0
 70
     8
 71
     3
 72
    20
 73
    16
 74
     0
 42
0.000000001
 43
0.0000000001
 40
0.0
 40
0.0
 40
0.0
 40
0.0
 40
0.000033571749035
 40
0.000033571749035
 40
0.000033571749035
 40
0.0000671442014429
 40
0.0000671442014429
 40
0.0000671442014429
 40
0.0001007043000221
 40
0.0001007043000221
 40
0.0001007043000221
 40
0.0001342458940633
 40
0.0001342458940633
 40
0.0001342458940633
 40
0.0001427926236779
 40
0.0001427926236779
 40
0.0001427926236779
 40
0.0001427926236779
 10
9.425952993480342
 20
-0.9256854244086412
 30
0.0
 10
9.426755450809883
 20
-0.9333626346308392
 30
0.0
 10
9.429480339794301
 20
-0.941228270255749
 30
0.0
 10
9.433906492637168
 20
-0.948605820607753
 30
0.0
 10
9.438332696526007
 20
-0.9559834560436399
 30
0.0
 10
9.444582747746812
 20
-0.9630749644115608
 30
0.0
 10
9.45214451466143
 20
-0.9692557694457946
 30
0.0
 10
9.459703500166533
 20
-0.9754343010232844
 30
0.0
 10
9.468782146629155
 20
-0.980871532528198
 30
0.0
 10
9.478631402752203
 20
-0.9850843731260283
 30
0.0
 10
9.488475550411626
 20
-0.9892950286712503
 30
0.0
 10
9.499360535566998
 20
-0.9923975139726335
 30
0.0
 10
9.510387020823293
 20
-0.9941216019715001
 30
0.0
 10
9.513234357598213
 20
-0.9945668081317931
 30
0.0
 10
9.516103410311476
 20
-0.9949245442467995
 30
0.0
 10
9.518978101933859
 20
-0.995192827812758
 30
0.0
  0
ARC
  5
2403
330
2364
100
AcDbEntity
  8
AM_0
 62
     6
100
AcDbCircle
 10
9.639405724022614
 20
0.2952040515562828
 30
0.0
 40
1.296004212356735
100
AcDbArc
 50
24.66825576966821
 51
95.32974423032916
  0
ARC
  5
2404
330
2364
100
AcDbEntity
  8
AM_0
 62
     6
100
AcDbCircle
 10
9.639405724022614
 20
0.2952040515562828
 30
0.0
 40
1.296004212356765
100
AcDbArc
 50
264.6682557696696
 51
335.3297442303268
  0
LINE
  5
2405
330
2364
100
AcDbEntity
  8
AM_0
 62
     6
100
AcDbLine
 10
8.608164246011865
 20
-0.3001834933727423
 30
0.0
 11
8.412702826006947
 21
-0.4130331968287635
 31
0.0
  0
LINE
  5
2406
330
2364
100
AcDbEntity
  8
AM_0
 62
     6
100
AcDbLine
 10
8.412709346347986
 20
1.003440949874516
 30
0.0
 11
8.608172058765672
 21
0.8906051283668006
 31
0.0
  0
LINE
  5
2407
330
2364
100
AcDbEntity
  8
0
100
AcDbLine
 10
10.75722204508912
 20
0.7056087140343266
 30
0.0
 11
10.7670440320471
 21
0.7056085426083172
 31
0.0
  0
LINE
  5
2408
330
2364
100
AcDbEntity
  8
0
100
AcDbLine
 10
10.75720771858284
 20
-0.1152396298222698
 30
0.0
 11
10.76702970554082
 21
-0.1152398012482791
 31
0.0
  0
ARC
  5
2409
330
2364
100
AcDbEntity
  8
0
100
AcDbCircle
 10
9.639405724022614
 20
0.2952040515562828
 30
0.0
 40
1.349999904632599
100
AcDbArc
 50
149.9997161550477
 51
210.0000000000003
  0
ARC
  5
240A
330
2364
100
AcDbEntity
  8
0
100
AcDbCircle
 10
9.639405724022614
 20
0.2952040515562828
 30
0.0
 40
1.349999904632599
100
AcDbArc
 50
330.0067159429461
 51
29.99999999999765
  0
POINT
  5
240B
330
2364
100
AcDbEntity
  8
0
 60
     1
100
AcDbPoint
 10
-24.52314207750392
 20
-11.41951469103847
 30
0.0
1001
GENIUS_GENOLIS_13
1002
{
1000
ENT
1005
23EC
1005
23EB
1005
23EA
1005
23E9
1002
}
1001
GENIUS_GENODEF_13
1002
{
1000
HIER
1070
    10
1002
}
1002
{
1000
MANEDIT
1070
     0
1002
}
1002
{
1000
NOSEL
1070
     0
1002
}
1002
{
1000
BEHIND
1070
     0
1002
}
1002
{
1000
OTHER
1070
     0
1002
}
1002
{
1000
REACTOR
1002
}
1001
GENIUS_GENOBJ-N-CRS_13
1002
{
1000
OWNER
1000
GEN
1002
}
1001
GENIUS_GENOENT_13
1002
{
1000
MYREF
1005
240B
1002
}
1002
{
1000
GRP
1005
0
1002
}
  0
ENDBLK
  5
240F
330
2364
100
AcDbEntity
  8
0
100
AcDbBlockEnd
  0
BLOCK
  5
2415
330
2412
100
AcDbEntity
  8
0
100
AcDbBlockBegin
  2
DDK-表題欄-和
 70
     2
 10
0.0
 20
0.0
 30
0.0
  3
DDK-表題欄-和
  1

  0
LINE
  5
2416
330
2412
100
AcDbEntity
  8
AM_BOR
  6
Continuous
 62
     7
100
AcDbLine
 10
-159.0000152587891
 20
32.5
 30
0.0
 11
-159.0000152587891
 21
0.0
 31
0.0
  0
LINE
  5
2417
330
2412
100
AcDbEntity
  8
AM_BOR
  6
Continuous
 62
     7
100
AcDbLine
 10
-137.000015258789
 20
32.5
 30
0.0
 11
-137.000015258789
 21
0.0
 31
0.0
  0
LINE
  5
2418
330
2412
100
AcDbEntity
  8
AM_BOR
  6
Continuous
 62
     7
100
AcDbLine
 10
-122.000015258789
 20
32.5
 30
0.0
 11
-122.000015258789
 21
0.0
 31
0.0
  0
LINE
  5
2419
330
2412
100
AcDbEntity
  8
AM_BOR
  6
Continuous
 62
     7
100
AcDbLine
 10
-113.000015258789
 20
32.5
 30
0.0
 11
-113.000015258789
 21
10.0
 31
0.0
  0
LINE
  5
241A
330
2412
100
AcDbEntity
  8
AM_BOR
  6
Continuous
 62
     7
100
AcDbLine
 10
-91.00001525878912
 20
32.5
 30
0.0
 11
-91.00001525878912
 21
0.0
 31
0.0
  0
LINE
  5
241B
330
2412
100
AcDbEntity
  8
AM_BOR
  6
Continuous
 62
     7
100
AcDbLine
 10
-117.500015258789
 20
10.0
 30
0.0
 11
-117.500015258789
 21
0.0
 31
0.0
  0
LINE
  5
241C
330
2412
100
AcDbEntity
  8
AM_BOR
  6
Continuous
 62
     7
100
AcDbLine
 10
-106.5000152587891
 20
10.0
 30
0.0
 11
-106.5000152587891
 21
0.0
 31
0.0
  0
LINE
  5
241D
330
2412
100
AcDbEntity
  8
AM_BOR
  6
Continuous
 62
     7
100
AcDbLine
 10
-102.0000152587891
 20
10.0
 30
0.0
 11
-102.0000152587891
 21
0.0
 31
0.0
  0
LINE
  5
241E
330
2412
100
AcDbEntity
  8
AM_BOR
  6
Continuous
 62
     7
100
AcDbLine
 10
-152.0000152587891
 20
32.5
 30
0.0
 11
-152.0000152587891
 21
0.0
 31
0.0
  0
LINE
  5
241F
330
2412
100
AcDbEntity
  8
AM_BOR
  6
Continuous
 62
     7
100
AcDbLine
 10
0.0
 20
0.0
 30
0.0
 11
4.0
 21
0.0
 31
0.0
  0
LINE
  5
2420
330
2412
100
AcDbEntity
  8
AM_BOR
  6
Continuous
 62
     7
100
AcDbLine
 10
-159.0000152587891
 20
32.5
 30
0.0
 11
0.0
 21
32.5
 31
0.0
  0
LINE
  5
2421
330
2412
100
AcDbEntity
  8
AM_BOR
  6
Continuous
 62
     7
100
AcDbLine
 10
-91.00001525878912
 20
16.0
 30
0.0
 11
0.0
 21
16.0
 31
0.0
  0
LINE
  5
2422
330
2412
100
AcDbEntity
  8
AM_BOR
  6
Continuous
 62
     7
100
AcDbLine
 10
-122.000015258789
 20
10.0
 30
0.0
 11
-91.00001525878912
 21
10.0
 31
0.0
  0
LINE
  5
2423
330
2412
100
AcDbEntity
  8
AM_BOR
  6
Continuous
 62
     7
100
AcDbLine
 10
-17.0
 20
12.0
 30
0.0
 11
0.0
 21
12.0
 31
0.0
  0
LINE
  5
2424
330
2412
100
AcDbEntity
  8
AM_BOR
  6
Continuous
 62
     7
100
AcDbLine
 10
-122.000015258789
 20
22.5
 30
0.0
 11
-91.00001525878912
 21
22.5
 31
0.0
  0
LINE
  5
2425
330
2412
100
AcDbEntity
  8
AM_BOR
  6
Continuous
 62
     7
100
AcDbLine
 10
-113.000015258789
 20
18.0
 30
0.0
 11
-91.00001525878912
 21
18.0
 31
0.0
  0
LINE
  5
2426
330
2412
100
AcDbEntity
  8
AM_BOR
  6
Continuous
 62
     7
100
AcDbLine
 10
-152.0000152587891
 20
28.5
 30
0.0
 11
-122.000015258789
 21
28.5
 31
0.0
  0
LINE
  5
2427
330
2412
100
AcDbEntity
  8
AM_BOR
  6
Continuous
 62
     7
100
AcDbLine
 10
-152.0000152587891
 20
16.5
 30
0.0
 11
-122.000015258789
 21
16.5
 31
0.0
  0
LINE
  5
2428
330
2412
100
AcDbEntity
  8
AM_BOR
  6
Continuous
 62
     7
100
AcDbLine
 10
-152.0000152587891
 20
12.5
 30
0.0
 11
-122.000015258789
 21
12.5
 31
0.0
  0
MTEXT
  5
2429
330
2412
100
AcDbEntity
  8
AM_BOR
  6
Continuous
 62
     2
100
AcDbMText
 10
-144.500015258789
 20
14.5
 30
0.0
 40
2.0
 41
14.57143068313599
 46
0.0
 71
     5
 72
     1
  1
検図
 73
     1
 44
1.0
1001
ACAD
1000
ACAD_MTEXT_DEFINED_HEIGHT_BEGIN
1070
    46
1040
0.0
1000
ACAD_MTEXT_DEFINED_HEIGHT_END
  0
MTEXT
  5
242A
330
2412
100
AcDbEntity
  8
AM_BOR
  6
Continuous
 62
     2
100
AcDbMText
 10
-129.500015258789
 20
14.5
 30
0.0
 40
2.0
 41
14.57143068313599
 46
0.0
 71
     5
 72
     1
  1
製写
 73
     1
 44
1.0
1001
ACAD
1000
ACAD_MTEXT_DEFINED_HEIGHT_BEGIN
1070
    46
1040
0.0
1000
ACAD_MTEXT_DEFINED_HEIGHT_END
  0
MTEXT
  5
242B
330
2412
100
AcDbEntity
  8
AM_BOR
  6
Continuous
 62
     2
100
AcDbMText
 10
-144.500015258789
 20
30.55984635786578
 30
0.0
 40
2.0
 41
14.57143068313599
 46
0.0
 71
     5
 72
     1
  1
承認
 73
     1
 44
1.0
1001
ACAD
1000
ACAD_MTEXT_DEFINED_HEIGHT_BEGIN
1070
    46
1040
0.0
1000
ACAD_MTEXT_DEFINED_HEIGHT_END
  0
MTEXT
  5
242C
330
2412
100
AcDbEntity
  8
AM_BOR
  6
Continuous
 62
     2
100
AcDbMText
 10
-129.500015258789
 20
30.58825544877486
 30
0.0
 40
2.0
 41
14.57143068313599
 46
0.0
 71
     5
 72
     1
  1
設計
 73
     1
 44
1.0
1001
ACAD
1000
ACAD_MTEXT_DEFINED_HEIGHT_BEGIN
1070
    46
1040
0.0
1000
ACAD_MTEXT_DEFINED_HEIGHT_END
  0
MTEXT
  5
242D
330
2412
100
AcDbEntity
  8
AM_BOR
  6
Continuous
 62
     2
100
AcDbMText
 10
-107.5000152587891
 20
20.25
 30
0.0
 40
2.0
 41
12.57143068313599
 46
0.0
 71
     5
 72
     1
  1
寸法
 73
     1
 44
1.0
1001
ACAD
1000
ACAD_MTEXT_DEFINED_HEIGHT_BEGIN
1070
    46
1040
0.0
1000
ACAD_MTEXT_DEFINED_HEIGHT_END
  0
MTEXT
  5
242E
330
2412
100
AcDbEntity
  8
AM_BOR
  6
Continuous
 62
     2
100
AcDbMText
 10
-96.50001525878913
 20
20.25
 30
0.0
 40
2.0
 41
12.57143068313599
 46
0.0
 71
     5
 72
     1
  1
角度
 73
     1
 44
1.0
1001
ACAD
1000
ACAD_MTEXT_DEFINED_HEIGHT_BEGIN
1070
    46
1040
0.0
1000
ACAD_MTEXT_DEFINED_HEIGHT_END
  0
MTEXT
  5
242F
330
2412
100
AcDbEntity
  8
AM_BOR
  6
Continuous
 62
     2
100
AcDbMText
 10
-117.500015258789
 20
29.61089892061603
 30
0.0
 40
2.0
 41
12.57143068313599
 46
0.0
 71
     5
 72
     1
  1
形式
 73
     1
 44
1.0
1001
ACAD
1000
ACAD_MTEXT_DEFINED_HEIGHT_BEGIN
1070
    46
1040
0.0
1000
ACAD_MTEXT_DEFINED_HEIGHT_END
  0
MTEXT
  5
2430
330
2412
100
AcDbEntity
  8
AM_BOR
  6
Continuous
 62
     2
100
AcDbMText
 10
-117.500015258789
 20
25.08030912666782
 30
0.0
 40
2.0
 41
12.57143068313599
 46
0.0
 71
     5
 72
     1
  1
機番
 73
     1
 44
1.0
1001
ACAD
1000
ACAD_MTEXT_DEFINED_HEIGHT_BEGIN
1070
    46
1040
0.0
1000
ACAD_MTEXT_DEFINED_HEIGHT_END
  0
MTEXT
  5
2431
330
2412
100
AcDbEntity
  8
AM_BOR
  6
Continuous
 62
     2
100
AcDbMText
 10
-117.500015258789
 20
18.04251036966874
 30
0.0
 40
2.0
 41
12.57143068313599
 46
0.0
 71
     5
 72
     1
  1
一般
 73
     1
 44
1.0
1001
ACAD
1000
ACAD_MTEXT_DEFINED_HEIGHT_BEGIN
1070
    46
1040
0.0
1000
ACAD_MTEXT_DEFINED_HEIGHT_END
  0
MTEXT
  5
2432
330
2412
100
AcDbEntity
  8
AM_BOR
  6
Continuous
 62
     2
100
AcDbMText
 10
-117.500015258789
 20
14.20659003138916
 30
0.0
 40
2.0
 41
12.57143068313599
 46
0.0
 71
     5
 72
     1
  1
公差
 73
     1
 44
1.0
1001
ACAD
1000
ACAD_MTEXT_DEFINED_HEIGHT_BEGIN
1070
    46
1040
0.0
1000
ACAD_MTEXT_DEFINED_HEIGHT_END
  0
MTEXT
  5
2433
330
2412
100
AcDbEntity
  8
AM_BOR
  6
Continuous
 62
     2
100
AcDbMText
 10
-119.750015258789
 20
6.804922300883219
 30
0.0
 40
2.0
 41
10.0
 46
0.0
 71
     5
 72
     1
  1
尺
 73
     1
 44
1.0
1001
ACAD
1000
ACAD_MTEXT_DEFINED_HEIGHT_BEGIN
1070
    46
1040
0.0
1000
ACAD_MTEXT_DEFINED_HEIGHT_END
  0
MTEXT
  5
2434
330
2412
100
AcDbEntity
  8
AM_BOR
  6
Continuous
 62
     2
100
AcDbMText
 10
-119.750015258789
 20
2.718247770097149
 30
0.0
 40
2.0
 41
10.0
 46
0.0
 71
     5
 72
     1
  1
度
 73
     1
 44
1.0
1001
ACAD
1000
ACAD_MTEXT_DEFINED_HEIGHT_BEGIN
1070
    46
1040
0.0
1000
ACAD_MTEXT_DEFINED_HEIGHT_END
  0
MTEXT
  5
2435
330
2412
100
AcDbEntity
  8
AM_BOR
  6
Continuous
 62
     2
100
AcDbMText
 10
-104.2500152587891
 20
7.031039088221702
 30
0.0
 40
2.0
 41
10.0
 46
0.0
 71
     5
 72
     1
  1
単
 73
     1
 44
1.0
1001
ACAD
1000
ACAD_MTEXT_DEFINED_HEIGHT_BEGIN
1070
    46
1040
0.0
1000
ACAD_MTEXT_DEFINED_HEIGHT_END
  0
MTEXT
  5
2436
330
2412
100
AcDbEntity
  8
AM_BOR
  6
Continuous
 62
     2
100
AcDbMText
 10
-104.2500152587891
 20
3.00831181549443
 30
0.0
 40
2.0
 41
10.0
 46
0.0
 71
     5
 72
     1
  1
位
 73
     1
 44
1.0
1001
ACAD
1000
ACAD_MTEXT_DEFINED_HEIGHT_BEGIN
1070
    46
1040
0.0
1000
ACAD_MTEXT_DEFINED_HEIGHT_END
  0
MTEXT
  5
2437
330
2412
100
AcDbEntity
  8
AM_BOR
  6
Continuous
 62
     2
100
AcDbMText
 10
-87.74725764928145
 20
30.5
 30
0.0
 40
2.0
 41
10.97143363952637
 46
0.0
 71
     5
 72
     1
  1
品名
 73
     1
 44
1.0
1001
ACAD
1000
ACAD_MTEXT_DEFINED_HEIGHT_BEGIN
1070
    46
1040
0.0
1000
ACAD_MTEXT_DEFINED_HEIGHT_END
  0
MTEXT
  5
2438
330
2412
100
AcDbEntity
  8
AM_BOR
  6
Continuous
 62
     2
100
AcDbMText
 10
-87.74725764928145
 20
13.80200383083366
 30
0.0
 40
2.0
 41
10.97143363952637
 46
0.0
 71
     5
 72
     1
  1
図番
 73
     1
 44
1.0
1001
ACAD
1000
ACAD_MTEXT_DEFINED_HEIGHT_BEGIN
1070
    46
1040
0.0
1000
ACAD_MTEXT_DEFINED_HEIGHT_END
  0
MTEXT
  5
2439
330
2412
100
AcDbEntity
  8
AM_BOR
  6
Continuous
 62
     2
100
AcDbMText
 10
-8.5
 20
14.0
 30
0.0
 40
2.5
 41
17.0
 46
4.0
 71
     5
 72
     1
  1
{\fMS Gothic|b0|i0|c128|p49;改版}
 73
     1
 44
1.0
1001
ACAD
1000
ACAD_MTEXT_DEFINED_HEIGHT_BEGIN
1070
    46
1040
0.0
1000
ACAD_MTEXT_DEFINED_HEIGHT_END
  0
ATTDEF
  5
243A
330
2412
100
AcDbEntity
  8
AM_BOR
100
AcDbText
 10
-54.00001525878912
 20
20.24741678053311
 30
0.0
 40
4.0
  1

 72
     4
 11
-54.00001525878912
 21
20.24741678053311
 31
0.0
100
AcDbAttributeDefinition
  3
品名(Main)
  2
GEN-TITLE-DESK1
 70
     0
280
     1
  0
ATTDEF
  5
243B
330
2412
100
AcDbEntity
  8
AM_BOR
100
AcDbText
 10
-52.1801470146279
 20
28.84041018499914
 30
0.0
 40
2.5
  1

 72
     4
 11
-52.1801470146279
 21
28.84041018499914
 31
0.0
100
AcDbAttributeDefinition
  3
品名(Sub)
  2
GEN-TITLE-DESK2
 70
     0
280
     1
  0
ATTDEF
  5
243C
330
2412
100
AcDbEntity
  8
AM_BOR
100
AcDbText
 10
-54.00001525878912
 20
6.083580838026364
 30
0.0
 40
4.0
  1

 72
     4
 11
-54.00001525878912
 21
6.083580838026364
 31
0.0
100
AcDbAttributeDefinition
  3
図番
  2
GEN-TITLE-NR
 70
     0
280
     1
  0
ATTDEF
  5
243D
330
2412
100
AcDbEntity
  8
AM_BOR
100
AcDbText
 10
-8.5
 20
4.228818890143144
 30
0.0
 40
5.0
  1

 72
     4
 11
-8.5
 21
4.228818890143144
 31
0.0
100
AcDbAttributeDefinition
  3
改版
  2
GEN-TITLE-REV
 70
     0
280
     1
  0
LINE
  5
243E
330
2412
100
AcDbEntity
  8
AM_BOR
  6
HIDDEN
 48
0.3
100
AcDbLine
 10
-102.0000152587891
 20
10.0
 30
0.0
 11
-102.0000152587891
 21
22.5
 31
0.0
  0
ATTDEF
  5
243F
330
2412
100
AcDbEntity
  8
AM_BOR
100
AcDbText
 10
-112.2736189759397
 20
4.589909690960388
 30
0.0
 40
3.5
  1

 72
     4
 11
-112.2736189759397
 21
4.589909690960388
 31
0.0
100
AcDbAttributeDefinition
  3
尺度
  2
GEN-TITLE-SCA
 70
     0
280
     1
  0
ATTDEF
  5
2440
330
2412
100
AcDbEntity
  8
AM_BOR
100
AcDbText
 10
-100.7089488249741
 20
3.456386963687644
 30
0.0
 40
3.5
  1
mm
 72
     4
 11
-96.97031246133782
 21
4.589909690960372
 31
0.0
100
AcDbAttributeDefinition
  3
単位
  2
GEN-TITLE-UNIT
 70
     0
280
     1
  0
ATTDEF
  5
2441
330
2412
100
AcDbEntity
  8
AM_BOR
100
AcDbText
 10
-99.42360400766494
 20
12.62122495122376
 30
0.0
 40
2.5
  1
±°
 72
     4
 11
-95.78724037130129
 21
13.77889540576922
 31
0.0
100
AcDbAttributeDefinition
  3
角度
  2
GEN-TITLE-ANG
 70
     0
280
     1
  0
ATTDEF
  5
2442
330
2412
100
AcDbEntity
  8
AM_BOR
100
AcDbText
 10
-109.4261584624093
 20
12.38627039679174
 30
0.0
 40
2.5
  1
±
 72
     4
 11
-107.6079766442275
 21
13.5439408513372
 31
0.0
100
AcDbAttributeDefinition
  3
寸法
  2
GEN-TITLE-DIM
 70
     0
280
     1
  0
ATTDEF
  5
2443
330
2412
100
AcDbEntity
  8
AM_BOR
100
AcDbText
 10
-102.0000152587891
 20
26.60190273409398
 30
0.0
 40
3.0
  1

 72
     4
 11
-102.0000152587891
 21
26.60190273409398
 31
0.0
100
AcDbAttributeDefinition
  3
型式機番
  2
GEN-TITLE-KEI
 70
     0
280
     1
  0
ATTDEF
  5
2444
330
2412
100
AcDbEntity
  8
AM_BOR
100
AcDbText
 10
-129.500015258789
 20
7.574586857482304
 30
0.0
 40
3.5
  1

 72
     4
 11
-129.500015258789
 21
7.574586857482304
 31
0.0
100
AcDbAttributeDefinition
  3
製写者
  2
GEN-TITLE-DWGM
 70
     0
280
     1
  0
ATTDEF
  5
2445
330
2412
100
AcDbEntity
  8
AM_BOR
100
AcDbText
 10
-133.2954698042435
 20
0.9968733410835902
 30
0.0
 40
2.0
  1
'06.1.1
 72
     4
 11
-129.500015258789
 21
1.991191522901772
 31
0.0
100
AcDbAttributeDefinition
  3
製写日付
  2
GEN-TITLE-DWGD
 70
     0
280
     1
  0
ATTDEF
  5
2446
330
2412
100
AcDbEntity
  8
AM_BOR
100
AcDbText
 10
-129.500015258789
 20
24.13664337405726
 30
0.0
 40
3.5
  1

 72
     4
 11
-129.500015258789
 21
24.13664337405726
 31
0.0
100
AcDbAttributeDefinition
  3
設計者
  2
GEN-TITLE-DWNM
 70
     0
280
     1
  0
ATTDEF
  5
2447
330
2412
100
AcDbEntity
  8
AM_BOR
100
AcDbText
 10
-133.2954698042435
 20
17.66444871640448
 30
0.0
 40
2.0
  1
'06.1.1
 72
     4
 11
-129.500015258789
 21
18.65876689822266
 31
0.0
100
AcDbAttributeDefinition
  3
設計日付
  2
GEN-TITLE-DWND
 70
     0
280
     1
  0
ATTDEF
  5
2448
330
2412
100
AcDbEntity
  8
AM_BOR
100
AcDbText
 10
-144.5598628903073
 20
7.574586857482304
 30
0.0
 40
3.5
  1

 72
     4
 11
-144.5598628903073
 21
7.574586857482304
 31
0.0
100
AcDbAttributeDefinition
  3
検図者
  2
GEN-TITLE-CHKM
 70
     0
280
     1
  0
ATTDEF
  5
2449
330
2412
100
AcDbEntity
  8
AM_BOR
100
AcDbText
 10
-144.5000152587891
 20
1.978317382246814
 30
0.0
 40
2.0
  1

 72
     4
 11
-144.5000152587891
 21
1.978317382246814
 31
0.0
100
AcDbAttributeDefinition
  3
検図日付
  2
GEN-TITLE-CHKD
 70
     0
280
     1
  0
ATTDEF
  5
244A
330
2412
100
AcDbEntity
  8
AM_BOR
100
AcDbText
 10
-144.5598628903073
 20
23.61722556757206
 30
0.0
 40
3.5
  1

 72
     4
 11
-144.5598628903073
 21
23.61722556757206
 31
0.0
100
AcDbAttributeDefinition
  3
承認者
  2
GEN-TITLE-APPM
 70
     0
280
     1
  0
ATTDEF
  5
244B
330
2412
100
AcDbEntity
  8
AM_BOR
100
AcDbText
 10
-144.5000152587891
 20
18.58058303986007
 30
0.0
 40
2.0
  1

 72
     4
 11
-144.5000152587891
 21
18.58058303986007
 31
0.0
100
AcDbAttributeDefinition
  3
承認日付
  2
GEN-TITLE-APPD
 70
     0
280
     1
  0
LINE
  5
244C
330
2412
100
AcDbEntity
  8
AM_BOR
  6
Continuous
 62
     7
100
AcDbLine
 10
-17.0
 20
32.5
 30
0.0
 11
-17.0
 21
0.0
 31
0.0
  0
LINE
  5
244D
330
2412
100
AcDbEntity
  8
0
100
AcDbLine
 10
-8.5
 20
12.0
 30
0.0
 11
-17.0
 21
0.0
 31
0.0
  0
LINE
  5
244E
330
2412
100
AcDbEntity
  8
0
100
AcDbLine
 10
-8.5
 20
12.0
 30
0.0
 11
0.0
 21
0.0
 31
0.0
  0
ENDBLK
  5
244F
330
2412
100
AcDbEntity
  8
0
100
AcDbBlockEnd
  0
ENDSEC
  0
SECTION
  2
ENTITIES
  0
LINE
  5
228C
330
23
100
AcDbEntity
  8
AM_7
  6
CENTER
 48
0.5
370
    15
100
AcDbLine
 10
17.22790716435256
 20
11.02797348006525
 30
0.0
 11
17.22790716435256
 21
3.120579786141247
 31
0.0
1001
DIMEXPLODE
1070
     0
  0
LINE
  5
228D
330
23
100
AcDbEntity
  8
AM_7
  6
CENTER
 48
0.5
370
    15
100
AcDbLine
 10
20.02790735508756
 20
8.112057037194146
 30
0.0
 11
14.39457414891055
 21
8.112057037194146
 31
0.0
1001
DIMEXPLODE
1070
     0
  0
LINE
  5
228E
330
23
100
AcDbEntity
  8
0
 48
0.5
370
    30
100
AcDbLine
 10
19.22790811802656
 20
10.11205703719415
 30
0.0
 11
15.22790716435256
 21
10.11205703719415
 31
0.0
1001
DIMEXPLODE
1070
     0
  0
LINE
  5
228F
330
23
100
AcDbEntity
  8
0
 48
0.5
370
    30
100
AcDbLine
 10
19.22790811802656
 20
6.112057037194147
 30
0.0
 11
15.22790716435256
 21
6.112057037194147
 31
0.0
1001
DIMEXPLODE
1070
     0
  0
LINE
  5
2290
330
23
100
AcDbEntity
  8
0
 48
0.5
370
    30
100
AcDbLine
 10
15.22790716435256
 20
10.11205703719415
 30
0.0
 11
15.22790716435256
 21
6.112057037194147
 31
0.0
1001
DIMEXPLODE
1070
     0
  0
LINE
  5
2291
330
23
100
AcDbEntity
  8
0
 48
0.5
370
    30
100
AcDbLine
 10
19.22790811802656
 20
10.11205703719415
 30
0.0
 11
19.22790811802656
 21
6.112057037194147
 31
0.0
1001
DIMEXPLODE
1070
     0
  0
LINE
  5
2292
330
23
100
AcDbEntity
  8
0
 48
0.5
370
    30
100
AcDbLine
 10
17.22790716435256
 20
4.112057037194147
 30
0.0
 11
18.72790716435256
 21
4.112057037194147
 31
0.0
1001
DIMEXPLODE
1070
     0
  0
LINE
  5
2293
330
23
100
AcDbEntity
  8
0
 48
0.5
370
    30
100
AcDbLine
 10
18.57790754582156
 20
6.112057037194147
 30
0.0
 11
18.57790754582156
 21
4.612057037194148
 31
0.0
1001
DIMEXPLODE
1070
     0
  0
LINE
  5
2294
330
23
100
AcDbEntity
  8
0
 48
0.5
370
    30
100
AcDbLine
 10
17.22790716435256
 20
4.112057037194147
 30
0.0
 11
15.72790716435256
 21
4.112057037194147
 31
0.0
1001
DIMEXPLODE
1070
     0
  0
LINE
  5
2295
330
23
100
AcDbEntity
  8
0
 48
0.5
370
    30
100
AcDbLine
 10
17.22790716435256
 20
4.612057037194148
 30
0.0
 11
18.72790716435256
 21
4.612057037194148
 31
0.0
1001
DIMEXPLODE
1070
     0
  0
LINE
  5
2296
330
23
100
AcDbEntity
  8
0
 48
0.5
370
    30
100
AcDbLine
 10
18.72790716435256
 20
4.612057037194148
 30
0.0
 11
18.72790716435256
 21
4.112057037194147
 31
0.0
1001
DIMEXPLODE
1070
     0
  0
LINE
  5
2297
330
23
100
AcDbEntity
  8
0
 48
0.5
370
    30
100
AcDbLine
 10
15.87790773655656
 20
6.112057037194147
 30
0.0
 11
15.87790773655656
 21
4.612057037194148
 31
0.0
1001
DIMEXPLODE
1070
     0
  0
LINE
  5
2298
330
23
100
AcDbEntity
  8
0
 48
0.5
370
    30
100
AcDbLine
 10
17.22790716435256
 20
4.612057037194148
 30
0.0
 11
15.72790716435256
 21
4.612057037194148
 31
0.0
1001
DIMEXPLODE
1070
     0
  0
LINE
  5
2299
330
23
100
AcDbEntity
  8
0
 48
0.5
370
    30
100
AcDbLine
 10
15.72790716435256
 20
4.612057037194148
 30
0.0
 11
15.72790716435256
 21
4.112057037194147
 31
0.0
1001
DIMEXPLODE
1070
     0
  0
CIRCLE
  5
229A
330
23
100
AcDbEntity
  8
0
 48
0.5
370
    30
100
AcDbCircle
 10
17.22790716435256
 20
8.112057037194146
 30
0.0
 40
0.2000000029802
  0
CIRCLE
  5
229B
330
23
100
AcDbEntity
  8
0
 48
0.5
370
    30
100
AcDbCircle
 10
17.22790716435256
 20
8.112057037194146
 30
0.0
 40
0.0500000007451
  0
CIRCLE
  5
229C
330
23
100
AcDbEntity
  8
0
 48
0.5
370
    30
100
AcDbCircle
 10
17.22790716435256
 20
8.112057037194146
 30
0.0
 40
2.0
  0
LINE
  5
229E
330
23
100
AcDbEntity
  8
AM_7
  6
CENTER
 48
0.3
370
    15
100
AcDbLine
 10
3.178203995483051
 20
10.84252078040393
 30
0.0
 11
3.178203995483051
 21
3.183060680510236
 31
0.0
1001
DIMEXPLODE
1070
     0
  0
LINE
  5
22A6
330
23
100
AcDbEntity
  8
AM_7
  6
CENTER
 48
0.3
370
    15
100
AcDbLine
 10
9.052654917495438
 20
8.112057037194146
 30
0.0
 11
0.8876332595516416
 21
8.112057037194146
 31
0.0
1001
DIMEXPLODE
1070
     0
  0
LINE
  5
22A8
330
23
100
AcDbEntity
  8
0
 48
0.5
370
    30
100
AcDbLine
 10
5.346401984946844
 20
10.11205703719415
 30
0.0
 11
5.642112667815843
 21
9.816346473534453
 31
0.0
1001
DIMEXPLODE
1070
     0
  0
LINE
  5
22AA
330
23
100
AcDbEntity
  8
0
 48
0.5
370
    30
100
AcDbLine
 10
3.178203995483051
 20
6.112057156403402
 30
0.0
 11
1.428203995483051
 21
6.112057156403396
 31
0.0
1001
DIMEXPLODE
1070
     0
  0
LINE
  5
22AB
330
23
100
AcDbEntity
  8
0
 48
0.5
370
    30
100
AcDbLine
 10
5.346401984946844
 20
6.112057156403396
 30
0.0
 11
3.178203995483051
 21
6.112057156403396
 31
0.0
1001
DIMEXPLODE
1070
     0
  0
LINE
  5
22AC
330
23
100
AcDbEntity
  8
0
 48
0.5
370
    30
100
AcDbLine
 10
1.428203995483051
 20
10.1120569179849
 30
0.0
 11
1.428203995483051
 21
6.112057156403396
 31
0.0
1001
DIMEXPLODE
1070
     0
  0
LINE
  5
22AD
330
23
100
AcDbEntity
  8
0
 48
0.5
370
    30
100
AcDbLine
 10
5.346402104156148
 20
10.1120569179849
 30
0.0
 11
1.428203995483051
 21
10.1120569179849
 31
0.0
1001
DIMEXPLODE
1070
     0
  0
LINE
  5
22AE
330
23
100
AcDbEntity
  8
0
 48
0.5
370
    30
100
AcDbLine
 10
4.928203995483051
 20
8.112056917984901
 30
0.0
 11
4.928203995483051
 21
6.112057156403396
 31
0.0
1001
DIMEXPLODE
1070
     0
  0
LINE
  5
22AF
330
23
100
AcDbEntity
  8
0
 48
0.5
370
    30
100
AcDbLine
 10
3.178203995483051
 20
4.612057156403398
 30
0.0
 11
4.678203995483051
 21
4.612057156403398
 31
0.0
1001
DIMEXPLODE
1070
     0
  0
LINE
  5
22B0
330
23
100
AcDbEntity
  8
0
 48
0.5
370
    30
100
AcDbLine
 10
4.678203995483051
 20
4.612057156403398
 30
0.0
 11
4.678203995483051
 21
4.112057156403397
 31
0.0
1001
DIMEXPLODE
1070
     0
  0
LINE
  5
22B1
330
23
100
AcDbEntity
  8
0
 48
0.5
370
    30
100
AcDbLine
 10
1.82820409085044
 20
6.112057156403396
 30
0.0
 11
1.82820409085044
 21
4.612057156403398
 31
0.0
1001
DIMEXPLODE
1070
     0
  0
LINE
  5
22B2
330
23
100
AcDbEntity
  8
0
 48
0.5
370
    30
100
AcDbLine
 10
1.678203995483051
 20
4.612057156403398
 30
0.0
 11
1.678203995483051
 21
4.112057156403397
 31
0.0
1001
DIMEXPLODE
1070
     0
  0
LINE
  5
22B3
330
23
100
AcDbEntity
  8
0
 48
0.5
370
    30
100
AcDbLine
 10
3.178203995483051
 20
4.612057156403391
 30
0.0
 11
1.678203995483051
 21
4.612057156403398
 31
0.0
1001
DIMEXPLODE
1070
     0
  0
LINE
  5
22B4
330
23
100
AcDbEntity
  8
0
 48
0.5
370
    30
100
AcDbLine
 10
3.178203995483051
 20
4.112057156403397
 30
0.0
 11
1.678203995483051
 21
4.112057156403397
 31
0.0
1001
DIMEXPLODE
1070
     0
  0
LINE
  5
22B5
330
23
100
AcDbEntity
  8
0
 48
0.5
370
    30
100
AcDbLine
 10
3.178203995483051
 20
4.112057156403397
 30
0.0
 11
4.678203995483051
 21
4.112057156403397
 31
0.0
1001
DIMEXPLODE
1070
     0
  0
LINE
  5
22B6
330
23
100
AcDbEntity
  8
0
 48
0.5
370
    30
100
AcDbLine
 10
4.528203900115548
 20
6.112057156403396
 30
0.0
 11
4.528203900115548
 21
4.612057156403398
 31
0.0
1001
DIMEXPLODE
1070
     0
  0
LINE
  5
22B7
330
23
100
AcDbEntity
  8
0
 48
0.5
370
    30
100
AcDbLine
 10
5.346401984946844
 20
6.112057037194147
 30
0.0
 11
5.642112667815843
 21
6.407767720063147
 31
0.0
1001
DIMEXPLODE
1070
     0
  0
LINE
  5
22B8
330
23
100
AcDbEntity
  8
0
 48
0.5
370
    30
100
AcDbLine
 10
5.686046655433352
 20
8.112057037194146
 30
0.0
 11
5.686046655433352
 21
6.513833708603747
 31
0.0
1001
DIMEXPLODE
1070
     0
  0
LINE
  5
22B9
330
23
100
AcDbEntity
  8
0
 48
0.5
370
    30
100
AcDbLine
 10
5.346401984946844
 20
8.112057037194146
 30
0.0
 11
5.346401984946844
 21
6.112057037194147
 31
0.0
1001
DIMEXPLODE
1070
     0
  0
ARC
  5
22BA
330
23
100
AcDbEntity
  8
0
 48
0.5
370
    30
100
AcDbCircle
 10
5.536046679275137
 20
6.513833708603747
 30
0.0
 40
0.1500000059605
100
AcDbArc
 50
314.9999987477631
 51
0.0000011383641832
1001
DIMEXPLODE
1070
     0
  0
ARC
  5
22BB
330
23
100
AcDbEntity
  8
0
100
AcDbCircle
 10
6.313204233901664
 20
7.037057037194144
 30
0.0
 40
0.3999999999999906
100
AcDbArc
 50
227.5000000000005
 51
312.4999999999988
  0
LINE
  5
22BC
330
23
100
AcDbEntity
  8
0
100
AcDbLine
 10
6.042968150855407
 20
6.742146102470115
 30
0.0
 11
5.913204233901687
 21
6.8610528248374
 31
0.0
  0
LINE
  5
22BD
330
23
100
AcDbEntity
  8
0
100
AcDbLine
 10
6.713204233901755
 20
6.861052824837386
 30
0.0
 11
6.58344031694792
 21
6.7421461024701
 31
0.0
  0
ARC
  5
22BE
330
23
100
AcDbEntity
  8
0
100
AcDbCircle
 10
6.313204233901678
 20
8.104641812093362
 30
0.0
 40
0.708593860798866
100
AcDbArc
 50
247.5814618262893
 51
292.4185381737027
  0
SPLINE
  5
22BF
330
23
100
AcDbEntity
  8
0
100
AcDbSpline
210
0.0
220
0.0
230
1.0
 70
     8
 71
     3
 72
    20
 73
    16
 74
     0
 42
0.000000001
 43
0.0000000001
 40
0.0
 40
0.0
 40
0.0
 40
0.0
 40
0.0000335781964564
 40
0.0000335781964564
 40
0.0000335781964564
 40
0.0000671592877428
 40
0.0000671592877428
 40
0.0000671592877428
 40
0.0001007034734845
 40
0.0001007034734845
 40
0.0001007034734845
 40
0.0001342560508289
 40
0.0001342560508289
 40
0.0001342560508289
 40
0.0001427932918105
 40
0.0001427932918105
 40
0.0001427932918105
 40
0.0001427932918105
 10
5.913204233901687
 20
6.866660157825464
 30
0.0
 10
5.913204233901687
 20
6.867700211634627
 30
0.0
 10
5.911860447532196
 20
6.870132593906446
 30
0.0
 10
5.909269417560999
 20
6.873748276102531
 30
0.0
 10
5.906678243272201
 20
6.877364159688426
 30
0.0
 10
5.902767128247027
 20
6.882262460893598
 30
0.0
 10
5.897831118788807
 20
6.888007924365155
 30
0.0
 10
5.89290035019183
 20
6.893747287528781
 30
0.0
 10
5.886809604701786
 20
6.900488554592668
 30
0.0
 10
5.88002832914281
 20
6.907636544923292
 30
0.0
 10
5.87324533091003
 20
6.914786351085722
 30
0.0
 10
5.865583012057122
 20
6.922538465715574
 30
0.0
 10
5.857647786999272
 20
6.930222075730481
 30
0.0
 10
5.855601603866197
 20
6.932203377218485
 30
0.0
 10
5.853528810850257
 20
6.934189019468674
 30
0.0
 10
5.851440742182766
 20
6.936167561229266
 30
0.0
  0
LINE
  5
22C0
330
23
100
AcDbEntity
  8
0
100
AcDbLine
 10
5.913204233901687
 20
6.866660157825464
 30
0.0
 11
5.913204233901687
 21
6.8610528248374
 31
0.0
  0
LINE
  5
22C1
330
23
100
AcDbEntity
  8
0
100
AcDbLine
 10
6.042968150855407
 20
7.44960156983214
 30
0.0
 11
5.851440742182782
 21
7.53735283745496
 31
0.0
  0
LINE
  5
22C2
330
23
100
AcDbEntity
  8
0
100
AcDbLine
 10
6.713204233901755
 20
6.86666015782545
 30
0.0
 11
6.713204233901755
 21
6.861052824837386
 31
0.0
  0
SPLINE
  5
22C3
330
23
100
AcDbEntity
  8
0
100
AcDbSpline
210
0.0
220
0.0
230
1.0
 70
     8
 71
     3
 72
    20
 73
    16
 74
     0
 42
0.000000001
 43
0.0000000001
 40
0.0
 40
0.0
 40
0.0
 40
0.0
 40
0.000033571749035
 40
0.000033571749035
 40
0.000033571749035
 40
0.0000671442014426
 40
0.0000671442014426
 40
0.0000671442014426
 40
0.0001007043000217
 40
0.0001007043000217
 40
0.0001007043000217
 40
0.0001342458940626
 40
0.0001342458940626
 40
0.0001342458940626
 40
0.0001427926236771
 40
0.0001427926236771
 40
0.0001427926236771
 40
0.0001427926236771
 10
6.774967725620676
 20
6.936167561229196
 30
0.0
 10
6.766865525081406
 20
6.928490351007056
 30
0.0
 10
6.758919114012704
 20
6.920624715382032
 30
0.0
 10
6.751762992859702
 20
6.913247165030113
 30
0.0
 10
6.74460678917665
 20
6.905869529594227
 30
0.0
 10
6.738042016597481
 20
6.898778021226362
 30
0.0
 10
6.732578559184552
 20
6.892597216192044
 30
0.0
 10
6.727117111369858
 20
6.886418684614581
 30
0.0
 10
6.7226040423265
 20
6.880981453109668
 30
0.0
 10
6.719381612424448
 20
6.87676861251181
 30
0.0
 10
6.716160853883528
 20
6.872557956966615
 30
0.0
 10
6.714139497807358
 20
6.86945547166529
 30
0.0
 10
6.71346548571244
 20
6.867731383666422
 30
0.0
 10
6.713291437556612
 20
6.867286177506072
 30
0.0
 10
6.7132042339013
 20
6.866928441391067
 30
0.0
 10
6.7132042339013
 20
6.866660157825107
 30
0.0
  0
LINE
  5
22C4
330
23
100
AcDbEntity
  8
0
100
AcDbLine
 10
6.77496772562069
 20
7.537352837454945
 30
0.0
 11
6.58344031694792
 21
7.449601569832124
 31
0.0
  0
ARC
  5
22C5
330
23
100
AcDbEntity
  8
0
100
AcDbCircle
 10
6.313204233901678
 20
7.849252104956534
 30
0.0
 40
0.3528208577250036
100
AcDbArc
 50
247.4825367501432
 51
292.5174632498758
  0
LINE
  5
22C6
330
23
100
AcDbEntity
  8
0
100
AcDbLine
 10
5.986558783705909
 20
7.611080571135887
 30
0.0
 11
6.178086192378549
 21
7.523329303513121
 31
0.0
  0
LINE
  5
22C7
330
23
100
AcDbEntity
  8
0
100
AcDbLine
 10
6.44832227542492
 20
7.523329303513107
 30
0.0
 11
6.639849684097563
 21
7.611080571135872
 31
0.0
  0
ARC
  5
22C8
330
23
100
AcDbEntity
  8
0
100
AcDbCircle
 10
5.759766417339783
 20
7.075724666825037
 30
0.0
 40
0.5814126948411312
100
AcDbArc
 50
67.04106824346951
 51
90.95241080746651
  0
LINE
  5
22C9
330
23
100
AcDbEntity
  8
0
100
AcDbLine
 10
5.750102211040434
 20
7.657057037194164
 30
0.0
 11
5.71320423390177
 21
7.657057037194164
 31
0.0
  0
LINE
  5
22CA
330
23
100
AcDbEntity
  8
0
100
AcDbLine
 10
5.71320423390177
 20
7.657057037194164
 30
0.0
 11
5.71320423390177
 21
7.557057037194197
 31
0.0
  0
LINE
  5
22CB
330
23
100
AcDbEntity
  8
0
100
AcDbLine
 10
5.71320423390177
 20
7.557057037194197
 30
0.0
 11
5.750102211040434
 21
7.557057037194197
 31
0.0
  0
ARC
  5
22CC
330
23
100
AcDbEntity
  8
0
100
AcDbCircle
 10
5.754244013739416
 20
7.307914592746242
 30
0.0
 40
0.2491768692217112
100
AcDbArc
 50
67.04106824368878
 51
90.95241080727758
  0
ARC
  5
22CD
330
23
100
AcDbEntity
  8
0
100
AcDbCircle
 10
6.872164454063799
 20
7.307914592747308
 30
0.0
 40
0.2491768692206279
100
AcDbArc
 50
89.04758919266214
 51
112.9589317563597
  0
LINE
  5
22CE
330
23
100
AcDbEntity
  8
0
100
AcDbLine
 10
6.876306256763037
 20
7.557057037194184
 30
0.0
 11
7.863204233901747
 21
7.557057037194168
 31
0.0
  0
LWPOLYLINE
  5
22CF
330
23
100
AcDbEntity
  8
0
100
AcDbPolyline
 90
        9
 70
   128
 43
0.0
 10
7.863204233901747
 20
7.557057037194168
 10
7.882713266103286
 20
7.558017773173957
 10
7.901472577138243
 20
7.560863060568577
 10
7.918761257203706
 20
7.565483556579009
 10
7.933914912020276
 20
7.571701698134802
 10
7.946351195131974
 20
7.579278525543144
 10
7.955592187152724
 20
7.587922865575876
 10
7.961282761942079
 20
7.597302521093353
 10
7.963204233901656
 20
7.607057037194124
  0
LINE
  5
22D0
330
23
100
AcDbEntity
  8
0
100
AcDbLine
 10
7.963204233901656
 20
7.607057037194124
 30
0.0
 11
7.963204233901656
 21
7.657057037194134
 31
0.0
  0
LINE
  5
22D1
330
23
100
AcDbEntity
  8
0
100
AcDbLine
 10
7.963204233901656
 20
7.657057037194134
 30
0.0
 11
6.876306256763037
 21
7.657057037194148
 31
0.0
  0
ARC
  5
22D2
330
23
100
AcDbEntity
  8
0
100
AcDbCircle
 10
6.866642050463205
 20
7.0757246668269
 30
0.0
 40
0.5814126948392265
100
AcDbArc
 50
89.04758919248704
 51
112.9589317565579
  0
SPLINE
  5
22D3
330
23
100
AcDbEntity
  8
0
100
AcDbSpline
210
0.0
220
0.0
230
1.0
 70
     8
 71
     3
 72
     8
 73
     4
 74
     0
 42
0.000000001
 43
0.0000000001
 40
0.0
 40
0.0
 40
0.0
 40
0.0
 40
0.0000190990060785
 40
0.0000190990060785
 40
0.0000190990060785
 40
0.0000190990060785
 10
6.789771650878654
 20
6.948231394779624
 30
0.0
 10
6.784571522228411
 20
6.944614480671318
 30
0.0
 10
6.779577076691047
 20
6.940535134826474
 30
0.0
 10
6.774967725620676
 20
6.936167561229196
 30
0.0
  0
ARC
  5
22D4
330
23
100
AcDbEntity
  8
0
100
AcDbCircle
 10
6.87620856229062
 20
6.823710074954887
 30
0.0
 40
0.151581327165764
100
AcDbArc
 50
89.96307275148934
 51
124.7665839602185
  0
ARC
  5
22D5
330
23
100
AcDbEntity
  8
0
100
AcDbCircle
 10
5.750199905512936
 20
6.823710074955072
 30
0.0
 40
0.1515813271655457
100
AcDbArc
 50
55.23341603981219
 51
90.03692724855543
  0
SPLINE
  5
22D6
330
23
100
AcDbEntity
  8
0
100
AcDbSpline
210
0.0
220
0.0
230
1.0
 70
     8
 71
     3
 72
     8
 73
     4
 74
     0
 42
0.000000001
 43
0.0000000001
 40
0.0
 40
0.0
 40
0.0
 40
0.0
 40
0.0000190990060785
 40
0.0000190990060785
 40
0.0000190990060785
 40
0.0000190990060785
 10
5.851440742182766
 20
6.936167561229266
 30
0.0
 10
5.846831391112393
 20
6.940535134826546
 30
0.0
 10
5.841836945574917
 20
6.944614480671331
 30
0.0
 10
5.836636816924673
 20
6.948231394779639
 30
0.0
  0
LINE
  5
22D7
330
23
100
AcDbEntity
  8
0
100
AcDbLine
 10
7.863204233901733
 20
6.975291370638442
 30
0.0
 11
6.876306256763021
 21
6.975291370638457
 31
0.0
  0
ARC
  5
22D8
330
23
100
AcDbEntity
  8
0
100
AcDbCircle
 10
7.863958225383433
 20
7.074537468223468
 30
0.0
 40
0.0992489616520521
100
AcDbArc
 50
269.564721438615
 51
359.5580050726036
  0
LINE
  5
22D9
330
23
100
AcDbEntity
  8
0
100
AcDbLine
 10
7.963204233901656
 20
7.607057037194124
 30
0.0
 11
7.963204233901642
 21
7.073771842851384
 31
0.0
  0
LINE
  5
22DA
330
23
100
AcDbEntity
  8
0
100
AcDbLine
 10
5.71320423390177
 20
7.557057037194197
 30
0.0
 11
5.713204233901755
 21
6.975291370638473
 31
0.0
  0
LINE
  5
22DB
330
23
100
AcDbEntity
  8
0
100
AcDbLine
 10
5.750102211040418
 20
6.975291370638473
 30
0.0
 11
5.713204233901755
 21
6.975291370638473
 31
0.0
  0
LINE
  5
22DC
330
23
100
AcDbEntity
  8
0
100
AcDbLine
 10
8.478204233901657
 20
7.112057037194147
 30
0.0
 11
8.478204233901657
 21
8.112057037194146
 31
0.0
  0
LINE
  5
22DF
330
23
100
AcDbEntity
  8
0
100
AcDbLine
 10
8.478204233901657
 20
8.112057037194146
 30
0.0
 11
8.478204233901657
 21
7.312057037194152
 31
0.0
  0
LINE
  5
22E1
330
23
100
AcDbEntity
  8
0
100
AcDbLine
 10
5.71320423390177
 20
7.202057037194165
 30
0.0
 11
5.686046774642639
 21
7.202057037194165
 31
0.0
  0
LINE
  5
22E3
330
23
100
AcDbEntity
  8
0
100
AcDbLine
 10
7.998204233901652
 20
7.142057037194156
 30
0.0
 11
7.963204233901656
 21
7.142057037194156
 31
0.0
  0
LINE
  5
22E4
330
23
100
AcDbEntity
  8
0
100
AcDbLine
 10
8.149114580463567
 20
6.922057037194163
 30
0.0
 11
7.998204233901652
 21
6.922057037194163
 31
0.0
  0
LINE
  5
22E6
330
23
100
AcDbEntity
  8
0
100
AcDbLine
 10
8.478204233901657
 20
7.112057037194162
 30
0.0
 11
8.149114580463567
 21
6.922057037194163
 31
0.0
  0
LINE
  5
22EB
330
23
100
AcDbEntity
  8
0
100
AcDbLine
 10
7.998204233901652
 20
6.922057037194163
 30
0.0
 11
7.998204233901652
 21
8.112057037194146
 31
0.0
  0
LINE
  5
22EC
330
23
100
AcDbEntity
  8
0
100
AcDbLine
 10
6.978204233901642
 20
8.112057037194146
 30
0.0
 11
6.978204233901642
 21
7.657057037194148
 31
0.0
  0
LINE
  5
22ED
330
23
100
AcDbEntity
  8
0
100
AcDbLine
 10
8.478204233901657
 20
7.312057037194152
 30
0.0
 11
8.478204233901657
 21
7.112057037194162
 31
0.0
  0
LINE
  5
22EE
330
23
100
AcDbEntity
  8
0
100
AcDbLine
 10
7.398204233901643
 20
7.657057037194134
 30
0.0
 11
7.398204233901643
 21
8.112057037194146
 31
0.0
  0
LINE
  5
22EF
330
23
100
AcDbEntity
  8
0
100
AcDbLine
 10
8.149114580466765
 20
6.922057091115192
 30
0.0
 11
8.149185108870021
 21
8.112057037194146
 31
0.0
  0
LINE
  5
2303
330
23
100
AcDbEntity
  8
0
 48
0.5
370
    30
100
AcDbLine
 10
4.928203995483051
 20
8.112057156403395
 30
0.0
 11
4.928203995483051
 21
10.1120569179849
 31
0.0
1001
DIMEXPLODE
1070
     0
  0
LINE
  5
2304
330
23
100
AcDbEntity
  8
0
 48
0.5
370
    30
100
AcDbLine
 10
5.346401984946844
 20
10.11205703719415
 30
0.0
 11
5.642112667815843
 21
9.816346354325148
 31
0.0
1001
DIMEXPLODE
1070
     0
  0
LINE
  5
2305
330
23
100
AcDbEntity
  8
0
 48
0.5
370
    30
100
AcDbLine
 10
5.686046655433352
 20
8.112057037194146
 30
0.0
 11
5.686046655433352
 21
9.710280365784546
 31
0.0
1001
DIMEXPLODE
1070
     0
  0
LINE
  5
2306
330
23
100
AcDbEntity
  8
0
 48
0.5
370
    30
100
AcDbLine
 10
5.346401984946844
 20
8.112057037194146
 30
0.0
 11
5.346401984946844
 21
10.11205703719415
 31
0.0
1001
DIMEXPLODE
1070
     0
  0
ARC
  5
2307
330
23
100
AcDbEntity
  8
0
 48
0.5
370
    30
100
AcDbCircle
 10
5.536046679275137
 20
9.710280365784546
 30
0.0
 40
0.1500000059605
100
AcDbArc
 50
359.9999988616362
 51
45.00000125223674
1001
DIMEXPLODE
1070
     0
  0
CIRCLE
  5
2308
330
23
100
AcDbEntity
  8
0
 48
0.5
370
    30
100
AcDbCircle
 10
17.22790716435256
 20
8.112057037194146
 30
0.0
 40
0.6000000238419
  0
CIRCLE
  5
2309
330
23
100
AcDbEntity
  8
0
100
AcDbCircle
 10
17.22790716435256
 20
8.112057037194146
 30
0.0
 40
0.8007752233724261
  0
CIRCLE
  5
230A
330
23
100
AcDbEntity
  8
0
100
AcDbCircle
 10
17.22790716435256
 20
8.112057037194146
 30
0.0
 40
1.000775032637533
  0
CIRCLE
  5
230B
330
23
100
AcDbEntity
  8
0
100
AcDbCircle
 10
17.22790716435256
 20
8.112057037194146
 30
0.0
 40
1.190775089858027
  0
CIRCLE
  5
230C
330
23
100
AcDbEntity
  8
0
100
AcDbCircle
 10
17.22790716435256
 20
8.112057037194146
 30
0.0
 40
0.5699999999999843
  0
CIRCLE
  5
230D
330
23
100
AcDbEntity
  8
0
100
AcDbCircle
 10
17.22790716435256
 20
8.112057037194146
 30
0.0
 40
0.0499999523163108
  0
CIRCLE
  5
230E
330
23
100
AcDbEntity
  8
0
100
AcDbCircle
 10
17.22790716435256
 20
8.112057037194146
 30
0.0
 40
0.1999999284743961
  0
CIRCLE
  5
230F
330
23
100
AcDbEntity
  8
0
100
AcDbCircle
 10
17.22790716435256
 20
8.112057037194146
 30
0.0
 40
0.4699999094009099
  0
LINE
  5
2310
330
23
100
AcDbEntity
  8
0
100
AcDbLine
 10
17.22790716435256
 20
8.112057037194146
 30
0.0
 11
15.06790716435256
 21
8.112057037194162
 31
0.0
1001
GENIUS_GENOREF_13
1005
2332
  0
LINE
  5
2311
330
23
100
AcDbEntity
  8
0
100
AcDbLine
 10
17.22790716435256
 20
8.112057037194146
 30
0.0
 11
17.22790716435258
 21
10.27205703719416
 31
0.0
1001
GENIUS_GENOREF_13
1005
2332
  0
LINE
  5
2312
330
23
100
AcDbEntity
  8
0
100
AcDbLine
 10
17.22790716435256
 20
8.112057037194146
 30
0.0
 11
19.38790716435255
 21
8.112057037194119
 31
0.0
1001
GENIUS_GENOREF_13
1005
2332
  0
LINE
  5
2313
330
23
100
AcDbEntity
  8
0
100
AcDbLine
 10
17.22790716435256
 20
8.112057037194146
 30
0.0
 11
17.22790716435253
 21
5.952057037194151
 31
0.0
1001
GENIUS_GENOREF_13
1005
2332
  0
ARC
  5
2314
330
23
100
AcDbEntity
  8
0
100
AcDbCircle
 10
17.22790716435256
 20
8.112057037194146
 30
0.0
 40
1.520000000000004
100
AcDbArc
 50
240.0000000000009
 51
145.9616238009661
  0
ARC
  5
2315
330
23
100
AcDbEntity
  8
0
100
AcDbCircle
 10
16.0512059255428
 20
8.906899282286588
 30
0.0
 40
0.1
100
AcDbArc
 50
145.9616238009661
 51
240.0032160489971
1001
GENIUS_GENOBJ-N-FIL_13
1002
{
1000
OWNER
1000
GEN
1002
}
1001
GENIUS_GENODEF_13
1002
{
1000
HIER
1070
     0
1002
}
1002
{
1000
MANEDIT
1070
     0
1002
}
1002
{
1000
NOSEL
1070
     0
1002
}
1002
{
1000
BEHIND
1070
     0
1002
}
1002
{
1000
OTHER
1070
     0
1002
}
1002
{
1000
REACTOR
1002
}
  0
ARC
  5
2316
330
23
100
AcDbEntity
  8
0
100
AcDbCircle
 10
17.22790716435256
 20
8.112057037194146
 30
0.0
 40
1.520000000000008
100
AcDbArc
 50
214.0382565958755
 51
240.0000000000009
  0
ARC
  5
2317
330
23
100
AcDbEntity
  8
0
100
AcDbCircle
 10
16.05120426633689
 20
7.317217248430664
 30
0.0
 40
0.1
100
AcDbArc
 50
119.9999999999987
 51
214.0382565958755
1001
GENIUS_GENODEF_13
1002
{
1000
HIER
1070
     0
1002
}
1002
{
1000
MANEDIT
1070
     0
1002
}
1002
{
1000
NOSEL
1070
     0
1002
}
1002
{
1000
BEHIND
1070
     0
1002
}
1002
{
1000
OTHER
1070
     0
1002
}
1002
{
1000
REACTOR
1002
}
1001
GENIUS_GENOBJ-N-FIL_13
1002
{
1000
OWNER
1000
GEN
1002
}
  0
ARC
  5
2318
330
23
100
AcDbEntity
  8
0
100
AcDbCircle
 10
16.25791972724593
 20
7.49429950235111
 30
0.0
 40
0.0500000000000119
100
AcDbArc
 50
176.4143021380976
 51
212.4919063689811
  0
ARC
  5
2319
330
23
100
AcDbEntity
  8
0
100
AcDbCircle
 10
16.25793050929665
 20
8.72983150141755
 30
0.0
 40
0.0500000000000292
100
AcDbArc
 50
147.5070936310178
 51
183.5846978618873
  0
LINE
  5
231A
330
23
100
AcDbEntity
  8
0
100
AcDbLine
 10
17.02111077281269
 20
6.939376105707465
 30
0.0
 11
17.01950872541862
 21
6.930291370638427
 31
0.0
  0
ARC
  5
231B
330
23
100
AcDbEntity
  8
0
100
AcDbCircle
 10
17.22790716435256
 20
8.112057037194146
 30
0.0
 40
1.199999999999999
100
AcDbArc
 50
212.49190636898
 51
259.9989999999987
  0
LINE
  5
231C
330
23
100
AcDbEntity
  8
0
100
AcDbLine
 10
17.02115170722537
 20
9.284745186522226
 30
0.0
 11
17.01954997694934
 21
9.293829977507726
 31
0.0
  0
ARC
  5
231D
330
23
100
AcDbEntity
  8
0
100
AcDbCircle
 10
17.22790716435256
 20
8.112057037194146
 30
0.0
 40
1.200000000000005
100
AcDbArc
 50
99.99899999999858
 51
147.5070936310195
  0
SPLINE
  5
231E
330
23
100
AcDbEntity
  8
0
100
AcDbSpline
210
0.0
220
0.0
230
1.0
 70
     8
 71
     3
 72
     8
 73
     4
 74
     0
 42
0.000000001
 43
0.0000000001
 40
0.0
 40
0.0
 40
0.0
 40
0.0
 40
0.0000190990060785
 40
0.0000190990060785
 40
0.0000190990060785
 40
0.0000190990060785
 10
17.01449705102266
 20
9.332953963321132
 30
0.0
 10
17.01404037968154
 20
9.328586405662006
 30
0.0
 10
17.01414133233162
 20
9.324507056290796
 30
0.0
 10
17.01477903071127
 20
9.320890119920477
 30
0.0
  0
LINE
  5
231F
330
23
100
AcDbEntity
  8
0
100
AcDbLine
 10
17.01954997694934
 20
9.293829977507726
 30
0.0
 11
17.01477903071127
 21
9.320890119920477
 31
0.0
  0
SPLINE
  5
2320
330
23
100
AcDbEntity
  8
0
100
AcDbSpline
210
0.0
220
0.0
230
1.0
 70
     8
 71
     3
 72
     8
 73
     4
 74
     0
 42
0.000000001
 43
0.0000000001
 40
0.0
 40
0.0
 40
0.0
 40
0.0
 40
0.0000190990060785
 40
0.0000190990060785
 40
0.0000190990060785
 40
0.0000190990060785
 10
18.38136604430272
 20
8.531858937508031
 30
0.0
 10
18.38481729612086
 20
8.533115022225826
 30
0.0
 10
18.38840066077637
 20
8.535067144270115
 30
0.0
 10
18.39195483102234
 20
8.537646288019869
 30
0.0
  0
SPLINE
  5
2321
330
23
100
AcDbEntity
  8
0
100
AcDbSpline
210
0.0
220
0.0
230
1.0
 70
     8
 71
     3
 72
     8
 73
     4
 74
     0
 42
0.000000001
 43
0.0000000001
 40
0.0
 40
0.0
 40
0.0
 40
0.0
 40
0.0000190990060785
 40
0.0000190990060785
 40
0.0000190990060785
 40
0.0000190990060785
 10
18.39193997444582
 20
7.686427153698829
 30
0.0
 10
18.38838589423111
 20
7.689006421510968
 30
0.0
 10
18.38480259771966
 20
7.690958668637037
 30
0.0
 10
18.38135138974926
 20
7.692214873825506
 30
0.0
  0
LINE
  5
2322
330
23
100
AcDbEntity
  8
0
100
AcDbLine
 10
18.35553114587076
 20
7.701613184389586
 30
0.0
 11
18.38135138974926
 21
7.692214873825506
 31
0.0
  0
LINE
  5
2323
330
23
100
AcDbEntity
  8
0
100
AcDbLine
 10
18.35554547237704
 20
8.522461528246182
 30
0.0
 11
18.38136604430272
 21
8.531858937508031
 31
0.0
  0
SPLINE
  5
2324
330
23
100
AcDbEntity
  8
0
100
AcDbSpline
210
0.0
220
0.0
230
1.0
 70
     8
 71
     3
 72
     8
 73
     4
 74
     0
 42
0.000000001
 43
0.0000000001
 40
0.0
 40
0.0
 40
0.0
 40
0.0
 40
0.0000190990060785
 40
0.0000190990060785
 40
0.0000190990060785
 40
0.0000190990060785
 10
17.01473683460628
 20
6.903231394779622
 30
0.0
 10
17.01409900997214
 20
6.899614480671345
 30
0.0
 10
17.01399791492602
 20
6.895535134826502
 30
0.0
 10
17.01445443381035
 20
6.891167561229195
 30
0.0
  0
LINE
  5
2325
330
23
100
AcDbEntity
  8
0
100
AcDbLine
 10
17.01950872541862
 20
6.930291370638427
 30
0.0
 11
17.01473683460628
 21
6.903231394779622
 31
0.0
  0
SPLINE
  5
2326
330
23
100
AcDbEntity
  8
0
100
AcDbSpline
210
0.0
220
0.0
230
1.0
 70
     8
 71
     3
 72
    20
 73
    16
 74
     0
 42
0.000000001
 43
0.0000000001
 40
0.0
 40
0.0
 40
0.0
 40
0.0
 40
0.0000335781964564
 40
0.0000335781964564
 40
0.0000335781964564
 40
0.0000671592877428
 40
0.0000671592877428
 40
0.0000671592877428
 40
0.0001007034734845
 40
0.0001007034734845
 40
0.0001007034734845
 40
0.0001342560508289
 40
0.0001342560508289
 40
0.0001342560508289
 40
0.0001427932918105
 40
0.0001427932918105
 40
0.0001427932918105
 40
0.0001427932918105
 10
17.10752458568567
 20
9.402458119493699
 30
0.0
 10
17.09638024406603
 20
9.401418454694805
 30
0.0
 10
17.08521050011838
 20
9.398986462319156
 30
0.0
 10
17.0749395093455
 20
9.395371138646057
 30
0.0
 10
17.064667946489
 20
9.391755613603178
 30
0.0
 10
17.05501214889993
 20
9.386857649445914
 30
0.0
 10
17.04677079132188
 20
9.381112473648473
 30
0.0
 10
17.03853818409431
 20
9.375373397853536
 30
0.0
 10
17.03148963802427
 20
9.368632376826239
 30
0.0
 10
17.02620300717024
 20
9.361484571029537
 30
0.0
 10
17.02091503333273
 20
9.354334949447858
 30
0.0
 10
17.01724369318709
 20
9.346582962967232
 30
0.0
 10
17.01548753161243
 20
9.338899414249226
 30
0.0
 10
17.01503468646097
 20
9.336918128567305
 30
0.0
 10
17.01470392637336
 20
9.334932497861617
 30
0.0
 10
17.01449705102275
 20
9.332953963321132
 30
0.0
  0
SPLINE
  5
2327
330
23
100
AcDbEntity
  8
0
100
AcDbSpline
210
0.0
220
0.0
230
1.0
 70
     8
 71
     3
 72
    20
 73
    16
 74
     0
 42
0.000000001
 43
0.0000000001
 40
0.0
 40
0.0
 40
0.0
 40
0.0
 40
0.000033571749035
 40
0.000033571749035
 40
0.000033571749035
 40
0.0000671442014429
 40
0.0000671442014429
 40
0.0000671442014429
 40
0.0001007043000221
 40
0.0001007043000221
 40
0.0001007043000221
 40
0.0001342458940633
 40
0.0001342458940633
 40
0.0001342458940633
 40
0.0001427926236779
 40
0.0001427926236779
 40
0.0001427926236779
 40
0.0001427926236779
 10
18.39195483102237
 20
8.537646288019812
 30
0.0
 10
18.39820226144023
 20
8.542179841563765
 30
0.0
 10
18.4036516572161
 20
8.548472482459217
 30
0.0
 10
18.4078277268172
 20
8.555994418438173
 30
0.0
 10
18.41200384458012
 20
8.563516441166157
 30
0.0
 10
18.41502024536749
 20
8.572474898482298
 30
0.0
 10
18.41659209608566
 20
8.582113983245008
 30
0.0
 10
18.41816336863732
 20
8.59174952250801
 30
0.0
 10
18.4183328260155
 20
8.602330476729051
 30
0.0
 10
18.41705662493381
 20
8.612966603038911
 30
0.0
 10
18.41578108577283
 20
8.623597212763186
 30
0.0
 10
18.413025424281
 20
8.634575129078243
 30
0.0
 10
18.40900528565824
 20
8.64498638942409
 30
0.0
 10
18.40796717711549
 20
8.647674858484421
 30
0.0
 10
18.40684245932233
 20
8.650338399076401
 30
0.0
 10
18.4056374538947
 20
8.652962096832439
 30
0.0
  0
SPLINE
  5
2328
330
23
100
AcDbEntity
  8
0
100
AcDbSpline
210
0.0
220
0.0
230
1.0
 70
     8
 71
     3
 72
    20
 73
    16
 74
     0
 42
0.000000001
 43
0.0000000001
 40
0.0
 40
0.0
 40
0.0
 40
0.0
 40
0.0000335781964564
 40
0.0000335781964564
 40
0.0000335781964564
 40
0.0000671592877428
 40
0.0000671592877428
 40
0.0000671592877428
 40
0.0001007034734845
 40
0.0001007034734845
 40
0.0001007034734845
 40
0.0001342560508289
 40
0.0001342560508289
 40
0.0001342560508289
 40
0.0001427932918105
 40
0.0001427932918105
 40
0.0001427932918105
 40
0.0001427932918105
 10
18.40561857202837
 20
7.571110867342937
 30
0.0
 10
18.41029036671093
 20
7.581281982693424
 30
0.0
 10
18.4137690715056
 20
7.592171260893721
 30
0.0
 10
18.41577360474826
 20
7.60287386166162
 30
0.0
 10
18.41777824964135
 20
7.61357705855336
 30
0.0
 10
18.41836438704887
 20
7.624388206637902
 30
0.0
 10
18.41750959764811
 20
7.634398019560889
 30
0.0
 10
18.41665571582924
 20
7.644397204456836
 30
0.0
 10
18.41434209340713
 20
7.653871934926867
 30
0.0
 10
18.41079522743292
 20
7.662024194445236
 30
0.0
 10
18.40724746043448
 20
7.670178524913937
 30
0.0
 10
18.40236971328529
 20
7.677233991986284
 30
0.0
 10
18.39659364569161
 20
7.682596646882116
 30
0.0
 10
18.39510422453464
 20
7.683979465128217
 30
0.0
 10
18.39354999794478
 20
7.685258727119459
 30
0.0
 10
18.39193997444578
 20
7.686427153698772
 30
0.0
  0
SPLINE
  5
2329
330
23
100
AcDbEntity
  8
0
100
AcDbSpline
210
0.0
220
0.0
230
1.0
 70
     8
 71
     3
 72
    20
 73
    16
 74
     0
 42
0.000000001
 43
0.0000000001
 40
0.0
 40
0.0
 40
0.0
 40
0.0
 40
0.000033571749035
 40
0.000033571749035
 40
0.000033571749035
 40
0.0000671442014429
 40
0.0000671442014429
 40
0.0000671442014429
 40
0.0001007043000221
 40
0.0001007043000221
 40
0.0001007043000221
 40
0.0001342458940633
 40
0.0001342458940633
 40
0.0001342458940633
 40
0.0001427926236779
 40
0.0001427926236779
 40
0.0001427926236779
 40
0.0001427926236779
 10
17.01445443381028
 20
6.891167561229224
 30
0.0
 10
17.01525689113983
 20
6.883490351007026
 30
0.0
 10
17.01798178012424
 20
6.875624715382115
 30
0.0
 10
17.02240793296711
 20
6.868247165030112
 30
0.0
 10
17.02683413685595
 20
6.860869529594224
 30
0.0
 10
17.03308418807675
 20
6.853778021226303
 30
0.0
 10
17.04064595499137
 20
6.847597216192069
 30
0.0
 10
17.04820494049647
 20
6.841418684614581
 30
0.0
 10
17.0572835869591
 20
6.835981453109668
 30
0.0
 10
17.06713284308215
 20
6.831768612511837
 30
0.0
 10
17.07697699074157
 20
6.827557956966613
 30
0.0
 10
17.08786197589694
 20
6.82445547166523
 30
0.0
 10
17.09888846115324
 20
6.822731383666365
 30
0.0
 10
17.10173579792815
 20
6.822286177506072
 30
0.0
 10
17.10460485064142
 20
6.821928441391064
 30
0.0
 10
17.1074795422638
 20
6.821660157825107
 30
0.0
  0
ARC
  5
232A
330
23
100
AcDbEntity
  8
0
100
AcDbCircle
 10
17.22790716435256
 20
8.112057037194146
 30
0.0
 40
1.296004212356735
100
AcDbArc
 50
24.66825576966821
 51
95.32974423032916
  0
ARC
  5
232B
330
23
100
AcDbEntity
  8
0
100
AcDbCircle
 10
17.22790716435256
 20
8.112057037194146
 30
0.0
 40
1.296004212356765
100
AcDbArc
 50
264.6682557696694
 51
335.3297442303269
  0
LINE
  5
232C
330
23
100
AcDbEntity
  8
0
100
AcDbLine
 10
16.19666568634181
 20
7.516669492265122
 30
0.0
 11
16.00120426633689
 21
7.403819788809101
 31
0.0
  0
LINE
  5
232D
330
23
100
AcDbEntity
  8
0
100
AcDbLine
 10
16.00121078667793
 20
8.820293935512379
 30
0.0
 11
16.19667349909561
 21
8.707458114004666
 31
0.0
  0
LINE
  5
232E
330
23
100
AcDbEntity
  8
0
100
AcDbLine
 10
18.34572348541906
 20
8.522461699672192
 30
0.0
 11
18.35554547237704
 21
8.522461528246182
 31
0.0
  0
LINE
  5
232F
330
23
100
AcDbEntity
  8
0
100
AcDbLine
 10
18.34570915891278
 20
7.701613355815593
 30
0.0
 11
18.35553114587076
 21
7.701613184389586
 31
0.0
  0
ARC
  5
2330
330
23
100
AcDbEntity
  8
0
100
AcDbCircle
 10
17.22790716435256
 20
8.112057037194146
 30
0.0
 40
1.349999904632599
100
AcDbArc
 50
149.9997161550477
 51
210.0000000000003
  0
POINT
  5
2332
330
23
100
AcDbEntity
  8
0
 60
     1
100
AcDbPoint
 10
-8.934638729825977
 20
-3.602661705400606
 30
0.0
1001
GENIUS_GENOLIS_13
1002
{
1000
ENT
1005
2313
1005
2312
1005
2311
1005
2310
1002
}
1001
GENIUS_GENODEF_13
1002
{
1000
HIER
1070
    10
1002
}
1002
{
1000
MANEDIT
1070
     0
1002
}
1002
{
1000
NOSEL
1070
     0
1002
}
1002
{
1000
BEHIND
1070
     0
1002
}
1002
{
1000
OTHER
1070
     0
1002
}
1002
{
1000
REACTOR
1002
}
1001
GENIUS_GENOBJ-N-CRS_13
1002
{
1000
OWNER
1000
GEN
1002
}
1001
GENIUS_GENOENT_13
1002
{
1000
MYREF
1005
2332
1002
}
1002
{
1000
GRP
1005
0
1002
}
  0
ARC
  5
2333
330
23
100
AcDbEntity
  8
0
100
AcDbCircle
 10
6.313204233901664
 20
9.187057037194151
 30
0.0
 40
0.3999999999999906
100
AcDbArc
 50
47.5000000000012
 51
132.4999999999995
  0
LINE
  5
2334
330
23
100
AcDbEntity
  8
0
100
AcDbLine
 10
6.042968150855407
 20
9.48196797191818
 30
0.0
 11
5.913204233901687
 21
9.363061249550897
 31
0.0
  0
LINE
  5
2335
330
23
100
AcDbEntity
  8
0
100
AcDbLine
 10
6.713204233901755
 20
9.363061249550908
 30
0.0
 11
6.58344031694792
 21
9.481967971918193
 31
0.0
  0
ARC
  5
2336
330
23
100
AcDbEntity
  8
0
100
AcDbCircle
 10
6.313204233901678
 20
8.119472262294934
 30
0.0
 40
0.708593860798866
100
AcDbArc
 50
67.58146182629737
 51
112.4185381737107
  0
SPLINE
  5
2337
330
23
100
AcDbEntity
  8
0
100
AcDbSpline
210
0.0
220
0.0
230
1.0
 70
     8
 71
     3
 72
    20
 73
    16
 74
     0
 42
0.000000001
 43
0.0000000001
 40
0.0
 40
0.0
 40
0.0
 40
0.0
 40
0.0000335781964564
 40
0.0000335781964564
 40
0.0000335781964564
 40
0.0000671592877428
 40
0.0000671592877428
 40
0.0000671592877428
 40
0.0001007034734845
 40
0.0001007034734845
 40
0.0001007034734845
 40
0.0001342560508289
 40
0.0001342560508289
 40
0.0001342560508289
 40
0.0001427932918105
 40
0.0001427932918105
 40
0.0001427932918105
 40
0.0001427932918105
 10
5.913204233901687
 20
9.357453916562832
 30
0.0
 10
5.913204233901687
 20
9.356413862753667
 30
0.0
 10
5.911860447532196
 20
9.353981480481847
 30
0.0
 10
5.909269417560999
 20
9.350365798285762
 30
0.0
 10
5.906678243272201
 20
9.346749914699868
 30
0.0
 10
5.902767128247027
 20
9.341851613494695
 30
0.0
 10
5.897831118788807
 20
9.336106150023141
 30
0.0
 10
5.89290035019183
 20
9.330366786859514
 30
0.0
 10
5.886809604701786
 20
9.323625519795626
 30
0.0
 10
5.88002832914281
 20
9.316477529465004
 30
0.0
 10
5.87324533091003
 20
9.309327723302571
 30
0.0
 10
5.865583012057122
 20
9.30157560867272
 30
0.0
 10
5.857647786999272
 20
9.293891998657812
 30
0.0
 10
5.855601603866197
 20
9.291910697169813
 30
0.0
 10
5.853528810850257
 20
9.289925054919619
 30
0.0
 10
5.851440742182766
 20
9.287946513159027
 30
0.0
  0
LINE
  5
2338
330
23
100
AcDbEntity
  8
0
100
AcDbLine
 10
5.913204233901687
 20
9.357453916562832
 30
0.0
 11
5.913204233901687
 21
9.363061249550897
 31
0.0
  0
LINE
  5
2339
330
23
100
AcDbEntity
  8
0
100
AcDbLine
 10
6.042968150855407
 20
8.774512504556156
 30
0.0
 11
5.851440742182782
 21
8.686761236933335
 31
0.0
  0
LINE
  5
233A
330
23
100
AcDbEntity
  8
0
100
AcDbLine
 10
6.713204233901755
 20
9.357453916562846
 30
0.0
 11
6.713204233901755
 21
9.363061249550908
 31
0.0
  0
SPLINE
  5
233B
330
23
100
AcDbEntity
  8
0
100
AcDbSpline
210
0.0
220
0.0
230
1.0
 70
     8
 71
     3
 72
    20
 73
    16
 74
     0
 42
0.000000001
 43
0.0000000001
 40
0.0
 40
0.0
 40
0.0
 40
0.0
 40
0.000033571749035
 40
0.000033571749035
 40
0.000033571749035
 40
0.0000671442014426
 40
0.0000671442014426
 40
0.0000671442014426
 40
0.0001007043000217
 40
0.0001007043000217
 40
0.0001007043000217
 40
0.0001342458940626
 40
0.0001342458940626
 40
0.0001342458940626
 40
0.0001427926236771
 40
0.0001427926236771
 40
0.0001427926236771
 40
0.0001427926236771
 10
6.774967725620676
 20
9.287946513159099
 30
0.0
 10
6.766865525081406
 20
9.29562372338124
 30
0.0
 10
6.758919114012704
 20
9.303489359006263
 30
0.0
 10
6.751762992859702
 20
9.310866909358182
 30
0.0
 10
6.74460678917665
 20
9.318244544794067
 30
0.0
 10
6.738042016597481
 20
9.325336053161931
 30
0.0
 10
6.732578559184552
 20
9.33151685819625
 30
0.0
 10
6.727117111369858
 20
9.337695389773713
 30
0.0
 10
6.7226040423265
 20
9.343132621278627
 30
0.0
 10
6.719381612424448
 20
9.347345461876486
 30
0.0
 10
6.716160853883528
 20
9.351556117421679
 30
0.0
 10
6.714139497807358
 20
9.354658602723006
 30
0.0
 10
6.71346548571244
 20
9.356382690721872
 30
0.0
 10
6.713291437556612
 20
9.356827896882222
 30
0.0
 10
6.7132042339013
 20
9.357185632997227
 30
0.0
 10
6.7132042339013
 20
9.357453916563187
 30
0.0
  0
LINE
  5
233C
330
23
100
AcDbEntity
  8
0
100
AcDbLine
 10
6.77496772562069
 20
8.68676123693335
 30
0.0
 11
6.58344031694792
 21
8.774512504556168
 31
0.0
  0
ARC
  5
233D
330
23
100
AcDbEntity
  8
0
100
AcDbCircle
 10
6.313204233901678
 20
8.374861969431762
 30
0.0
 40
0.3528208577250036
100
AcDbArc
 50
67.48253675012418
 51
112.5174632498567
  0
LINE
  5
233E
330
23
100
AcDbEntity
  8
0
100
AcDbLine
 10
5.986558783705909
 20
8.61303350325241
 30
0.0
 11
6.178086192378549
 21
8.700784770875172
 31
0.0
  0
LINE
  5
233F
330
23
100
AcDbEntity
  8
0
100
AcDbLine
 10
6.44832227542492
 20
8.700784770875186
 30
0.0
 11
6.639849684097563
 21
8.613033503252424
 31
0.0
  0
ARC
  5
2340
330
23
100
AcDbEntity
  8
0
100
AcDbCircle
 10
5.759766417339783
 20
9.148389407563255
 30
0.0
 40
0.5814126948411312
100
AcDbArc
 50
269.0475891925335
 51
292.9589317565305
  0
LINE
  5
2341
330
23
100
AcDbEntity
  8
0
100
AcDbLine
 10
5.750102211040434
 20
8.567057037194132
 30
0.0
 11
5.71320423390177
 21
8.567057037194132
 31
0.0
  0
LINE
  5
2342
330
23
100
AcDbEntity
  8
0
100
AcDbLine
 10
5.71320423390177
 20
8.567057037194132
 30
0.0
 11
5.71320423390177
 21
8.667057037194098
 31
0.0
  0
LINE
  5
2343
330
23
100
AcDbEntity
  8
0
100
AcDbLine
 10
5.71320423390177
 20
8.667057037194098
 30
0.0
 11
5.750102211040434
 21
8.667057037194098
 31
0.0
  0
ARC
  5
2344
330
23
100
AcDbEntity
  8
0
100
AcDbCircle
 10
5.754244013739416
 20
8.916199481642053
 30
0.0
 40
0.2491768692217112
100
AcDbArc
 50
269.0475891927224
 51
292.9589317563113
  0
ARC
  5
2345
330
23
100
AcDbEntity
  8
0
100
AcDbCircle
 10
6.872164454063799
 20
8.916199481640989
 30
0.0
 40
0.2491768692206279
100
AcDbArc
 50
247.0410682436401
 51
270.9524108073379
  0
LINE
  5
2346
330
23
100
AcDbEntity
  8
0
100
AcDbLine
 10
6.876306256763037
 20
8.667057037194112
 30
0.0
 11
7.863204233901747
 21
8.667057037194124
 31
0.0
  0
LWPOLYLINE
  5
2347
330
23
100
AcDbEntity
  8
0
100
AcDbPolyline
 90
        9
 70
   128
 43
0.0
 10
7.863204233901747
 20
8.667057037194124
 10
7.882713266103286
 20
8.666096301214336
 10
7.901472577138243
 20
8.663251013819717
 10
7.918761257203706
 20
8.658630517809285
 10
7.933914912020276
 20
8.652412376253494
 10
7.946351195131974
 20
8.644835548845151
 10
7.955592187152724
 20
8.636191208812419
 10
7.961282761942079
 20
8.626811553294942
 10
7.963204233901656
 20
8.617057037194173
  0
LINE
  5
2348
330
23
100
AcDbEntity
  8
0
100
AcDbLine
 10
7.963204233901656
 20
8.617057037194173
 30
0.0
 11
7.963204233901656
 21
8.56705703719416
 31
0.0
  0
LINE
  5
2349
330
23
100
AcDbEntity
  8
0
100
AcDbLine
 10
7.963204233901656
 20
8.56705703719416
 30
0.0
 11
6.876306256763037
 21
8.567057037194146
 31
0.0
  0
ARC
  5
234A
330
23
100
AcDbEntity
  8
0
100
AcDbCircle
 10
6.866642050463205
 20
9.148389407561396
 30
0.0
 40
0.5814126948392265
100
AcDbArc
 50
247.0410682434421
 51
270.9524108075129
  0
SPLINE
  5
234B
330
23
100
AcDbEntity
  8
0
100
AcDbSpline
210
0.0
220
0.0
230
1.0
 70
     8
 71
     3
 72
     8
 73
     4
 74
     0
 42
0.000000001
 43
0.0000000001
 40
0.0
 40
0.0
 40
0.0
 40
0.0
 40
0.0000190990060785
 40
0.0000190990060785
 40
0.0000190990060785
 40
0.0000190990060785
 10
6.789771650878654
 20
9.27588267960867
 30
0.0
 10
6.784571522228411
 20
9.279499593716977
 30
0.0
 10
6.779577076691047
 20
9.28357893956182
 30
0.0
 10
6.774967725620676
 20
9.287946513159099
 30
0.0
  0
ARC
  5
234C
330
23
100
AcDbEntity
  8
0
100
AcDbCircle
 10
6.87620856229062
 20
9.400403999433407
 30
0.0
 40
0.151581327165764
100
AcDbArc
 50
235.2334160397815
 51
270.0369272485107
  0
ARC
  5
234D
330
23
100
AcDbEntity
  8
0
100
AcDbCircle
 10
5.750199905512936
 20
9.400403999433224
 30
0.0
 40
0.1515813271655457
100
AcDbArc
 50
269.9630727514445
 51
304.7665839601878
  0
SPLINE
  5
234E
330
23
100
AcDbEntity
  8
0
100
AcDbSpline
210
0.0
220
0.0
230
1.0
 70
     8
 71
     3
 72
     8
 73
     4
 74
     0
 42
0.000000001
 43
0.0000000001
 40
0.0
 40
0.0
 40
0.0
 40
0.0
 40
0.0000190990060785
 40
0.0000190990060785
 40
0.0000190990060785
 40
0.0000190990060785
 10
5.851440742182766
 20
9.287946513159027
 30
0.0
 10
5.846831391112393
 20
9.283578939561747
 30
0.0
 10
5.841836945574917
 20
9.279499593716963
 30
0.0
 10
5.836636816924673
 20
9.275882679608656
 30
0.0
  0
LINE
  5
234F
330
23
100
AcDbEntity
  8
0
100
AcDbLine
 10
7.863204233901733
 20
9.248822703749851
 30
0.0
 11
6.876306256763021
 21
9.248822703749835
 31
0.0
  0
ARC
  5
2350
330
23
100
AcDbEntity
  8
0
100
AcDbCircle
 10
7.863958225383433
 20
9.149576606164828
 30
0.0
 40
0.0992489616520521
100
AcDbArc
 50
0.4419949273964259
 51
90.43527856138501
  0
LINE
  5
2351
330
23
100
AcDbEntity
  8
0
100
AcDbLine
 10
7.963204233901656
 20
8.617057037194173
 30
0.0
 11
7.963204233901642
 21
9.15034223153691
 31
0.0
  0
LINE
  5
2352
330
23
100
AcDbEntity
  8
0
100
AcDbLine
 10
5.71320423390177
 20
8.667057037194098
 30
0.0
 11
5.713204233901755
 21
9.248822703749825
 31
0.0
  0
LINE
  5
2353
330
23
100
AcDbEntity
  8
0
100
AcDbLine
 10
5.750102211040418
 20
9.248822703749825
 30
0.0
 11
5.713204233901755
 21
9.248822703749825
 31
0.0
  0
LINE
  5
2354
330
23
100
AcDbEntity
  8
0
100
AcDbLine
 10
8.478204233901657
 20
9.112057037194148
 30
0.0
 11
8.478204233901657
 21
8.112057037194146
 31
0.0
  0
LINE
  5
2355
330
23
100
AcDbEntity
  8
0
100
AcDbLine
 10
8.478204233901657
 20
8.112057037194146
 30
0.0
 11
8.478204233901657
 21
8.912057037194145
 31
0.0
  0
LINE
  5
2356
330
23
100
AcDbEntity
  8
0
100
AcDbLine
 10
5.71320423390177
 20
9.02205703719413
 30
0.0
 11
5.686046774642639
 21
9.02205703719413
 31
0.0
  0
LINE
  5
2357
330
23
100
AcDbEntity
  8
0
100
AcDbLine
 10
7.998204233901652
 20
9.082057037194141
 30
0.0
 11
7.963204233901656
 21
9.082057037194141
 31
0.0
  0
LINE
  5
2358
330
23
100
AcDbEntity
  8
0
100
AcDbLine
 10
8.149114580463567
 20
9.302057037194133
 30
0.0
 11
7.998204233901652
 21
9.302057037194133
 31
0.0
  0
LINE
  5
2359
330
23
100
AcDbEntity
  8
0
100
AcDbLine
 10
8.478204233901657
 20
9.112057037194132
 30
0.0
 11
8.149114580463567
 21
9.302057037194133
 31
0.0
  0
LINE
  5
235A
330
23
100
AcDbEntity
  8
0
100
AcDbLine
 10
7.998204233901652
 20
9.302057037194133
 30
0.0
 11
7.998204233901652
 21
8.112057037194146
 31
0.0
  0
LINE
  5
235B
330
23
100
AcDbEntity
  8
0
100
AcDbLine
 10
6.978204233901642
 20
8.112057037194146
 30
0.0
 11
6.978204233901642
 21
8.567057037194146
 31
0.0
  0
LINE
  5
235C
330
23
100
AcDbEntity
  8
0
100
AcDbLine
 10
8.478204233901657
 20
8.912057037194145
 30
0.0
 11
8.478204233901657
 21
9.112057037194132
 31
0.0
  0
LINE
  5
235D
330
23
100
AcDbEntity
  8
0
100
AcDbLine
 10
7.398204233901643
 20
8.56705703719416
 30
0.0
 11
7.398204233901643
 21
8.112057037194146
 31
0.0
  0
LINE
  5
235E
330
23
100
AcDbEntity
  8
0
100
AcDbLine
 10
8.149114580466765
 20
9.302056983273102
 30
0.0
 11
8.149185108870021
 21
8.112057037194146
 31
0.0
  0
MTEXT
  5
2362
330
23
100
AcDbEntity
  8
0
100
AcDbMText
 10
2.037935487880531
 20
2.168025307841844
 30
0.0
 40
1.0
 41
17.86371667574531
 46
0.0
 71
     1
 72
     5
  1
【MMCXF-LP-FCCAV1-SO】
 73
     1
 44
1.0
1001
ACAD
1000
ACAD_MTEXT_COLUMN_INFO_BEGIN
1070
    75
1070
     2
1070
    79
1070
     0
1070
    76
1070
     1
1070
    78
1070
     0
1070
    48
1040
17.86371667574531
1070
    49
1040
15.0
1070
    50
1070
     1
1040
0.0
1000
ACAD_MTEXT_COLUMN_INFO_END
  0
POINT
  5
2483
330
23
100
AcDbEntity
  8
0
 60
     1
100
AcDbPoint
 10
-56.07853042455027
 20
-13.97349168513317
 30
0.0
1001
GENIUS_GENOENT_13
1002
{
1000
MYREF
1005
2483
1002
}
1002
{
1000
GRP
1005
0
1002
}
1001
GENIUS_GENOBJ-N-TIT_13
1002
{
1000
OWNER
1000
GEN
1002
}
1001
GENIUS_GENOLIS_13
1002
{
1000
ENT
1005
2470
1005
0
1002
}
1001
GENIUS_GENTITLE_13
1002
{
1000
BORDER
1000
DDK-A3図枠-和
1002
}
1002
{
1000
TITLE
1000
DDK-表題欄-和
1002
}
1002
{
1000
ADDITIONAL1
1000

1002
}
1002
{
1000
ADDITIONAL2
1000

1002
}
1002
{
1000
SCALE
1000
5:1
1002
}
1002
{
1000
TITLESTD
1000
JIS
1002
}
1002
{
1000
HRA
1005
0
1002
}
1002
{
1000
HTIT
1005
2470
1002
}
1002
{
1000
GENIUSID
1005
2483
1002
}
1002
{
1000
INVTXTID
1005
0
1002
}
1001
GENIUS_GENODEF_13
1002
{
1000
HIER
1070
     1
1002
}
1002
{
1000
MANEDIT
1070
     1
1002
}
1002
{
1000
NOSEL
1070
     0
1002
}
1002
{
1000
BEHIND
1070
     0
1002
}
1002
{
1000
OTHER
1070
     0
1002
}
1002
{
1000
REACTOR
1002
}
  0
ENDSEC
  0
SECTION
  2
OBJECTS
  0
DICTIONARY
  5
C
330
0
100
AcDbDictionary
281
     1
  3
ACAD_CIP_PREVIOUS_PRODUCT_INFO
350
2193
  3
ACAD_COLOR
350
1C
  3
ACAD_DETAILVIEWSTYLE
350
2189
  3
ACAD_FIELDLIST
350
21B1
  3
ACAD_GROUP
350
D
  3
ACAD_LAYOUT
350
1A
  3
ACAD_MATERIAL
350
1B
  3
ACAD_MLEADERSTYLE
350
2185
  3
ACAD_MLINESTYLE
350
17
  3
ACAD_PLOTSETTINGS
350
19
  3
ACAD_PLOTSTYLENAME
350
E
  3
ACAD_SCALELIST
350
2173
  3
ACAD_SECTIONVIEWSTYLE
350
2187
  3
ACAD_TABLESTYLE
350
1D
  3
ACAD_VISUALSTYLE
350
9BF
  3
ACDB_RECOMPOSE_DATA
350
2580
  3
AcDbVariableDictionary
350
17C
  3
AcmDictionary
350
8B
  3
AMG
350
2F
  3
AMGSNAPSETTINGS
350
174
  0
DICTIONARY
  5
60C
330
2
100
AcDbDictionary
280
     1
281
     1
  3
ACAD_LAYERFILTERS
360
DD1
  3
ACAD_LAYERSTATES
360
20D0
  3
ACLYDICTIONARY
360
DD0
  3
AMLAYER_GROUPCOLORS
360
60D
  0
DICTIONARY
  5
24D8
330
10
100
AcDbDictionary
280
     1
281
     1
  3
ADSK_XREC_LAYER_RECONCILED
360
24D9
  0
DICTIONARY
  5
21CF
330
21CE
100
AcDbDictionary
280
     1
281
     1
  3
ADSK_XREC_LAYER_RECONCILED
360
24DA
  0
DICTIONARY
  5
21D1
330
21D0
100
AcDbDictionary
280
     1
281
     1
  3
ADSK_XREC_LAYER_RECONCILED
360
24DB
  0
DICTIONARY
  5
21D3
330
21D2
100
AcDbDictionary
280
     1
281
     1
  3
ADSK_XREC_LAYER_RECONCILED
360
24DC
  0
DICTIONARY
  5
21D5
330
21D4
100
AcDbDictionary
280
     1
281
     1
  3
ADSK_XREC_LAYER_RECONCILED
360
24DD
  0
DICTIONARY
  5
2451
330
2450
100
AcDbDictionary
280
     1
281
     1
  3
ADSK_XREC_LAYER_RECONCILED
360
24DE
  0
DICTIONARY
  5
24BD
330
23
100
AcDbDictionary
280
     1
281
     1
  3
ACAD_SORTENTS
360
24BE
  0
DICTIONARY
  5
240C
330
2364
100
AcDbDictionary
280
     1
281
     1
  3
ACAD_SORTENTS
360
240D
  0
DICTIONARY
  5
2413
330
2412
100
AcDbDictionary
280
     1
281
     1
  3
ACAD_SORTENTS
360
2414
  0
XRECORD
  5
2193
102
{ACAD_REACTORS
330
C
102
}
330
C
100
AcDbXrecord
280
     1
300
AMECH_PP
300
2020
300
87229AMECH_PP_2020_0F
  0
DICTIONARY
  5
1C
102
{ACAD_REACTORS
330
C
102
}
330
C
100
AcDbDictionary
281
     1
  0
DICTIONARY
  5
2189
102
{ACAD_REACTORS
330
C
102
}
330
C
100
AcDbDictionary
281
     1
  3
Metric50
350
218A
  0
FIELDLIST
  5
21B1
102
{ACAD_REACTORS
330
C
102
}
330
C
100
AcDbIdSet
 90
        3
330
2575
330
2576
330
2577
100
AcDbFieldList
  0
DICTIONARY
  5
D
102
{ACAD_REACTORS
330
C
102
}
330
C
100
AcDbDictionary
281
     1
  0
DICTIONARY
  5
1A
102
{ACAD_REACTORS
330
C
102
}
330
C
100
AcDbDictionary
281
     1
  3
Model
350
26
  3
レイアウト1
350
22
  3
レイアウト2
350
2A
  0
DICTIONARY
  5
1B
102
{ACAD_REACTORS
330
C
102
}
330
C
100
AcDbDictionary
281
     1
  3
ByBlock
350
9BD
  3
ByLayer
350
9BC
  3
Global
350
9BE
  0
DICTIONARY
  5
2185
102
{ACAD_REACTORS
330
C
102
}
330
C
100
AcDbDictionary
281
     1
  3
Standard
350
2186
  0
DICTIONARY
  5
17
102
{ACAD_REACTORS
330
C
102
}
330
C
100
AcDbDictionary
281
     1
  3
Standard
350
18
  0
DICTIONARY
  5
19
102
{ACAD_REACTORS
330
C
102
}
330
C
100
AcDbDictionary
281
     1
  0
ACDBDICTIONARYWDFLT
  5
E
102
{ACAD_REACTORS
330
C
102
}
330
C
100
AcDbDictionary
281
     1
  3
Normal
350
F
100
AcDbDictionaryWithDefault
340
F
  0
DICTIONARY
  5
2173
102
{ACAD_REACTORS
330
C
102
}
330
C
100
AcDbDictionary
281
     1
  3
A0
350
2174
  3
A1
350
2175
  3
A2
350
2176
  3
A3
350
2177
  3
A4
350
2178
  3
A5
350
2179
  3
A6
350
217A
  3
A7
350
217B
  3
A8
350
217C
  3
A9
350
217D
  3
B0
350
217E
  3
B1
350
217F
  3
B2
350
2180
  3
B3
350
2181
  3
B4
350
2182
  3
B5
350
2183
  3
B6
350
2184
  0
DICTIONARY
  5
2187
102
{ACAD_REACTORS
330
C
102
}
330
C
100
AcDbDictionary
281
     1
  3
Metric50
350
2188
  0
DICTIONARY
  5
1D
102
{ACAD_REACTORS
330
C
102
}
330
C
100
AcDbDictionary
281
     1
  3
Standard
350
1E
  0
DICTIONARY
  5
9BF
102
{ACAD_REACTORS
330
C
102
}
330
C
100
AcDbDictionary
281
     1
  3
2dWireframe
350
9C5
  3
3D Hidden
350
9C7
  3
3dWireframe
350
9C6
  3
Basic
350
9C4
  3
Brighten
350
9CB
  3
ColorChange
350
9CF
  3
Conceptual
350
9C8
  3
Dim
350
9CA
  3
EdgeColorOff
350
2172
  3
Facepattern
350
9CE
  3
Flat
350
9C0
  3
FlatWithEdges
350
9C1
  3
Gouraud
350
9C2
  3
GouraudWithEdges
350
9C3
  3
Hidden
350
216A
  3
JitterOff
350
2170
  3
Linepattern
350
9CD
  3
OverhangOff
350
2171
  3
Realistic
350
9C9
  3
Shaded
350
216F
  3
Shaded with edges
350
216E
  3
Shades of Gray
350
216B
  3
Sketchy
350
216C
  3
Thicken
350
9CC
  3
Wireframe
350
2169
  3
X-Ray
350
216D
  0
XRECORD
  5
2580
102
{ACAD_REACTORS
330
C
102
}
330
C
100
AcDbXrecord
280
     1
 90
        1
330
1E
330
2362
  0
DICTIONARY
  5
17C
102
{ACAD_REACTORS
330
C
102
}
330
C
100
AcDbDictionary
281
     1
  3
CANNOSCALE
350
24E3
  3
CMLEADERSTYLE
350
24DF
  3
CTABLESTYLE
350
17D
  3
CVIEWDETAILSTYLE
350
24E0
  3
CVIEWSECTIONSTYLE
350
24E1
  3
LAYEREVAL
350
24E5
  3
LAYERNOTIFY
350
24E6
  3
LIGHTINGUNITS
350
24E4
  3
MSLTSCALE
350
24E2
  0
DICTIONARY
  5
8B
102
{ACAD_REACTORS
330
C
102
}
330
C
100
AcDbDictionary
281
     1
  3
AcmStdDictionary
350
8D
  3
AMDTSECTSYM_ARROWCOLOR
350
AC
  0
DICTIONARY
  5
2F
102
{ACAD_REACTORS
330
C
102
}
330
C
100
AcDbDictionary
281
     1
  0
DICTIONARY
  5
174
102
{ACAD_REACTORS
330
C
102
}
330
C
100
AcDbDictionary
281
     1
  0
DICTIONARY
  5
DD1
102
{ACAD_REACTORS
330
60C
102
}
330
60C
100
AcDbDictionary
281
     1
  0
DICTIONARY
  5
20D0
102
{ACAD_REACTORS
330
60C
102
}
330
60C
100
AcDbDictionary
281
     1
  0
DICTIONARY
  5
DD0
102
{ACAD_REACTORS
330
60C
102
}
330
60C
100
AcDbDictionary
281
     1
1001
ACAD
1000
<All
  0
DICTIONARY
  5
60D
102
{ACAD_REACTORS
330
60C
102
}
330
60C
100
AcDbDictionary
280
     1
281
     1
  0
XRECORD
  5
24D9
102
{ACAD_REACTORS
330
24D8
102
}
330
24D8
100
AcDbXrecord
280
     1
290
     1
  0
XRECORD
  5
24DA
102
{ACAD_REACTORS
330
21CF
102
}
330
21CF
100
AcDbXrecord
280
     1
290
     1
  0
XRECORD
  5
24DB
102
{ACAD_REACTORS
330
21D1
102
}
330
21D1
100
AcDbXrecord
280
     1
290
     1
  0
XRECORD
  5
24DC
102
{ACAD_REACTORS
330
21D3
102
}
330
21D3
100
AcDbXrecord
280
     1
290
     1
  0
XRECORD
  5
24DD
102
{ACAD_REACTORS
330
21D5
102
}
330
21D5
100
AcDbXrecord
280
     1
290
     1
  0
XRECORD
  5
24DE
102
{ACAD_REACTORS
330
2451
102
}
330
2451
100
AcDbXrecord
280
     1
290
     1
  0
SORTENTSTABLE
  5
24BE
102
{ACAD_REACTORS
330
24BD
102
}
330
24BD
100
AcDbSortentsTable
330
23
  0
SORTENTSTABLE
  5
240D
102
{ACAD_REACTORS
330
240C
102
}
330
240C
100
AcDbSortentsTable
330
2364
  0
SORTENTSTABLE
  5
2414
102
{ACAD_REACTORS
330
2413
102
}
330
2413
100
AcDbSortentsTable
330
2412
331
244C
  5
2416
331
241D
  5
241B
331
243B
  5
2439
331
242E
  5
242C
331
242F
  5
242D
331
241E
  5
241C
331
243C
  5
243A
331
2430
  5
242E
331
241F
  5
241D
331
243D
  5
243B
331
2431
  5
242F
331
2420
  5
241E
331
243E
  5
243C
331
243F
  5
243D
331
2432
  5
2430
331
2421
  5
241F
331
2440
  5
243E
331
2433
  5
2431
331
2422
  5
2420
331
2416
  5
244A
331
2423
  5
2421
331
2441
  5
243F
331
2434
  5
2432
331
2435
  5
2433
331
2424
  5
2422
331
2442
  5
2440
331
2417
  5
244B
331
2436
  5
2434
331
2425
  5
2423
331
2443
  5
2441
331
2437
  5
2435
331
2426
  5
2424
331
2444
  5
2442
331
2445
  5
2443
331
2427
  5
2425
331
2446
  5
2444
331
2428
  5
2426
331
2429
  5
2427
331
2447
  5
2445
331
2418
  5
244C
331
2448
  5
2446
331
242A
  5
2428
331
2419
  5
2417
331
242B
  5
2429
331
241A
  5
2418
331
2449
  5
2447
331
2438
  5
2436
331
2439
  5
2437
331
241B
  5
2419
331
242C
  5
242A
331
244A
  5
2448
331
241C
  5
241A
331
244B
  5
2449
331
243A
  5
2438
331
242D
  5
242B
  0
ACDBDETAILVIEWSTYLE
  5
218A
102
{ACAD_XDICTIONARY
360
25B9
102
}
102
{ACAD_REACTORS
330
2189
330
2570
102
}
330
2189
100
AcDbModelDocViewStyle
 70
     0
  3
Metric50
290
     0
100
AcDbDetailViewStyle
 70
     0
 71
     0
 90
        3
 71
     1
340
11
 62
   256
 40
5.0
340
0
 62
   256
 40
5.0
300

 40
0.0
280
     1
 71
     2
340
16
 90
       25
 62
   256
 71
     3
340
11
 62
   256
 40
5.0
 90
        0
 40
15.0
 90
        1
300
%<\AcVar ViewDetailId>% (%<\AcVar ViewScale \f "%sn">%)
 71
     4
340
16
 90
       25
 62
   256
340
16
 90
       25
 62
   256
280
     0
  0
LAYOUT
  5
26
102
{ACAD_REACTORS
330
1A
102
}
330
1A
100
AcDbPlotSettings
  1

  2
PDF.pc3
  4
A3
  6

 40
0.0
 41
0.0
 42
0.053009033203125
 43
0.1583251953125
 44
297.0530090332031
 45
420.1583251953125
 46
0.0789155888301622
 47
0.0000000000000075
 48
0.0
 49
0.0923920273426084
140
209.9098301659148
141
297.0924072861226
142
1.0
143
0.7071428934732858
 70
 11956
 72
     1
 73
     0
 74
     4
  7
monochrome.ctb
 75
     0
147
1.414141341487974
 76
     0
 77
     2
 78
   300
148
0.0
149
-0.0923920273426084
100
AcDbLayout
  1
Model
 70
     1
 71
     0
 10
0.0
 20
0.0
 11
12.0
 21
9.0
 12
0.0
 22
0.0
 32
0.0
 14
0.0
 24
0.0
 34
0.0
 15
0.0
 25
0.0
 35
0.0
146
0.0
 13
0.0
 23
0.0
 33
0.0
 16
1.0
 26
0.0
 36
0.0
 17
0.0
 27
1.0
 37
0.0
 76
     0
330
23
331
9BA
1001
ACAD_PSEXT
1000
PDF.pc3
1000
PDFill Writer
1000
PDFillWriterPort
1000
PDFill PDF&Image Writer
1070
     0
  0
LAYOUT
  5
22
102
{ACAD_REACTORS
330
1A
102
}
330
1A
100
AcDbPlotSettings
  1

  2
C:\Documents and Settings\sakurazawa\Application Data\Autodesk\AutoCAD Mechanical 2006\R16.2\jpn\plotters\Default Windows System Printer.pc3
  4

  6

 40
0.0
 41
0.0
 42
0.0
 43
0.0
 44
0.0
 45
0.0
 46
0.0
 47
0.0
 48
0.0
 49
0.0
140
0.0
141
0.0
142
1.0
143
1.0
 70
   688
 72
     0
 73
     0
 74
     5
  7
monochrome.ctb
 75
    16
147
1.0
 76
     0
 77
     2
 78
   300
148
0.0
149
0.0
100
AcDbLayout
  1
レイアウト1
 70
     1
 71
     1
 10
0.0
 20
0.0
 11
420.0
 21
297.0
 12
0.0
 22
0.0
 32
0.0
 14
1.000000000000000E+20
 24
1.000000000000000E+20
 34
1.000000000000000E+20
 15
-1.000000000000000E+20
 25
-1.000000000000000E+20
 35
-1.000000000000000E+20
146
0.0
 13
0.0
 23
0.0
 33
0.0
 16
1.0
 26
0.0
 36
0.0
 17
0.0
 27
1.0
 37
0.0
 76
     0
330
1F
  0
LAYOUT
  5
2A
102
{ACAD_REACTORS
330
1A
102
}
330
1A
100
AcDbPlotSettings
  1

  2
C:\Documents and Settings\sakurazawa\Application Data\Autodesk\AutoCAD Mechanical 2006\R16.2\jpn\plotters\Default Windows System Printer.pc3
  4

  6

 40
0.0
 41
0.0
 42
0.0
 43
0.0
 44
0.0
 45
0.0
 46
0.0
 47
0.0
 48
0.0
 49
0.0
140
0.0
141
0.0
142
1.0
143
1.0
 70
   688
 72
     0
 73
     0
 74
     5
  7
monochrome.ctb
 75
    16
147
1.0
 76
     0
 77
     2
 78
   300
148
0.0
149
0.0
100
AcDbLayout
  1
レイアウト2
 70
     1
 71
     2
 10
0.0
 20
0.0
 11
12.0
 21
9.0
 12
0.0
 22
0.0
 32
0.0
 14
0.0
 24
0.0
 34
0.0
 15
0.0
 25
0.0
 35
0.0
146
0.0
 13
0.0
 23
0.0
 33
0.0
 16
1.0
 26
0.0
 36
0.0
 17
0.0
 27
1.0
 37
0.0
 76
     0
330
27
  0
MATERIAL
  5
9BD
102
{ACAD_REACTORS
330
1B
102
}
330
1B
100
AcDbMaterial
  1
ByBlock
 73
     1
 78
     1
172
     1
176
     1
270
     1
274
     1
 94
       63
  0
MATERIAL
  5
9BC
102
{ACAD_REACTORS
330
1B
102
}
330
1B
100
AcDbMaterial
  1
ByLayer
 73
     1
 78
     1
172
     1
176
     1
270
     1
274
     1
 94
       63
  0
MATERIAL
  5
9BE
102
{ACAD_REACTORS
330
1B
102
}
330
1B
100
AcDbMaterial
  1
Global
 73
     1
 78
     1
172
     1
176
     1
270
     1
274
     1
 94
       63
  0
MLEADERSTYLE
  5
2186
102
{ACAD_XDICTIONARY
360
25B5
102
}
102
{ACAD_REACTORS
330
2185
102
}
330
2185
100
AcDbMLeaderStyle
170
     2
171
     1
172
     0
 90
        2
 40
0.0
 41
0.0
173
     1
 91
-1056964608
340
14
 92
       -2
290
     1
 42
2.0
291
     1
 43
0.36
  3
Standard
 44
4.0
300

342
11
174
     1
178
     6
175
     1
176
     0
 93
-1056964608
 45
4.0
292
     0
297
     0
 46
4.0
 94
-1056964608
 47
1.0
 49
1.0
140
1.0
293
     1
141
0.0
294
     1
177
     0
142
1.0
295
     0
296
     0
143
0.125
1001
ACAD_MLEADERVER
1070
     2
  0
MLINESTYLE
  5
18
102
{ACAD_REACTORS
330
17
102
}
330
17
100
AcDbMlineStyle
  2
STANDARD
 70
     0
  3

 62
   256
 51
90.0
 52
90.0
 71
     2
 49
0.5
 62
   256
  6
BYLAYER
 49
-0.5
 62
   256
  6
BYLAYER
  0
ACDBPLACEHOLDER
  5
F
102
{ACAD_REACTORS
330
E
102
}
330
E
  0
SCALE
  5
2174
102
{ACAD_REACTORS
330
2173
102
}
330
2173
100
AcDbScale
 70
     0
300
1:1
140
1.0
141
1.0
290
     1
  0
SCALE
  5
2175
102
{ACAD_REACTORS
330
2173
102
}
330
2173
100
AcDbScale
 70
     0
300
1:2
140
1.0
141
2.0
290
     0
  0
SCALE
  5
2176
102
{ACAD_REACTORS
330
2173
102
}
330
2173
100
AcDbScale
 70
     0
300
1:4
140
1.0
141
4.0
290
     0
  0
SCALE
  5
2177
102
{ACAD_REACTORS
330
2173
102
}
330
2173
100
AcDbScale
 70
     0
300
1:5
140
1.0
141
5.0
290
     0
  0
SCALE
  5
2178
102
{ACAD_REACTORS
330
2173
102
}
330
2173
100
AcDbScale
 70
     0
300
1:8
140
1.0
141
8.0
290
     0
  0
SCALE
  5
2179
102
{ACAD_REACTORS
330
2173
102
}
330
2173
100
AcDbScale
 70
     0
300
1:10
140
1.0
141
10.0
290
     0
  0
SCALE
  5
217A
102
{ACAD_REACTORS
330
2173
102
}
330
2173
100
AcDbScale
 70
     0
300
1:16
140
1.0
141
16.0
290
     0
  0
SCALE
  5
217B
102
{ACAD_REACTORS
330
2173
102
}
330
2173
100
AcDbScale
 70
     0
300
1:20
140
1.0
141
20.0
290
     0
  0
SCALE
  5
217C
102
{ACAD_REACTORS
330
2173
102
}
330
2173
100
AcDbScale
 70
     0
300
1:30
140
1.0
141
30.0
290
     0
  0
SCALE
  5
217D
102
{ACAD_REACTORS
330
2173
102
}
330
2173
100
AcDbScale
 70
     0
300
1:40
140
1.0
141
40.0
290
     0
  0
SCALE
  5
217E
102
{ACAD_REACTORS
330
2173
102
}
330
2173
100
AcDbScale
 70
     0
300
1:50
140
1.0
141
50.0
290
     0
  0
SCALE
  5
217F
102
{ACAD_REACTORS
330
2173
102
}
330
2173
100
AcDbScale
 70
     0
300
1:100
140
1.0
141
100.0
290
     0
  0
SCALE
  5
2180
102
{ACAD_REACTORS
330
2173
102
}
330
2173
100
AcDbScale
 70
     0
300
2:1
140
2.0
141
1.0
290
     0
  0
SCALE
  5
2181
102
{ACAD_REACTORS
330
2173
102
}
330
2173
100
AcDbScale
 70
     0
300
4:1
140
4.0
141
1.0
290
     0
  0
SCALE
  5
2182
102
{ACAD_REACTORS
330
2173
102
}
330
2173
100
AcDbScale
 70
     0
300
8:1
140
8.0
141
1.0
290
     0
  0
SCALE
  5
2183
102
{ACAD_REACTORS
330
2173
102
}
330
2173
100
AcDbScale
 70
     0
300
10:1
140
10.0
141
1.0
290
     0
  0
SCALE
  5
2184
102
{ACAD_REACTORS
330
2173
102
}
330
2173
100
AcDbScale
 70
     0
300
100:1
140
100.0
141
1.0
290
     0
  0
ACDBSECTIONVIEWSTYLE
  5
2188
102
{ACAD_XDICTIONARY
360
25B7
102
}
102
{ACAD_REACTORS
330
2187
330
256F
102
}
330
2187
100
AcDbModelDocViewStyle
 70
     0
  3
Metric50
290
     0
100
AcDbSectionViewStyle
 70
     0
 71
     0
 90
      102
 71
     1
340
11
 62
   256
 40
5.0
340
0
340
0
 62
   256
 40
5.0
300
I, O, Q, S, X, Z
 40
10.0
 90
        0
 40
2.5
 90
        0
 71
     2
340
16
 90
       25
 62
   256
340
16
 90
       50
 62
   256
 40
5.0
 40
2.5
 40
5.0
 71
     3
340
11
 62
   256
 40
5.0
 90
        0
 40
15.0
 90
        1
300
%<\AcVar ViewSectionStartId>%-%<\AcVar ViewSectionEndId>% (%<\AcVar ViewScale \f "%sn">%)
 71
     4
 62
   256
 62
   257
300
ANSI31
 40
1.0
 90
        0
290
     0
290
     0
 90
        6
 40
0.0
 40
1.570796326794896
 40
0.2617993877991494
 40
1.308996938995747
 40
-0.2617993877991494
 40
1.832595714594045
  0
TABLESTYLE
  5
1E
102
{ACAD_XDICTIONARY
360
24E7
102
}
102
{ACAD_REACTORS
330
1D
102
}
330
1D
100
AcDbTableStyle
  3
Standard
 70
     0
 71
     0
 40
1.5
 41
1.5
280
     0
281
     0
  7
STANDARD
140
4.5
170
     2
 62
     0
 63
     7
283
     0
 90
        4
 91
        0
  1

274
    -2
284
     1
 64
     0
275
    -2
285
     1
 65
     0
276
    -2
286
     1
 66
     0
277
    -2
287
     1
 67
     0
278
    -2
288
     1
 68
     0
279
    -2
289
     1
 69
     0
  7
STANDARD
140
6.0
170
     5
 62
     0
 63
     7
283
     0
 90
        4
 91
        0
  1

274
    -2
284
     1
 64
     0
275
    -2
285
     1
 65
     0
276
    -2
286
     1
 66
     0
277
    -2
287
     1
 67
     0
278
    -2
288
     1
 68
     0
279
    -2
289
     1
 69
     0
  7
STANDARD
140
4.5
170
     5
 62
     0
 63
     7
283
     0
 90
        4
 91
        0
  1

274
    -2
284
     1
 64
     0
275
    -2
285
     1
 65
     0
276
    -2
286
     1
 66
     0
277
    -2
287
     1
 67
     0
278
    -2
288
     1
 68
     0
279
    -2
289
     1
 69
     0
  0
VISUALSTYLE
  5
9C5
102
{ACAD_XDICTIONARY
360
258B
102
}
102
{ACAD_REACTORS
330
9BF
102
}
330
9BF
100
AcDbVisualStyle
  2

 70
     4
 71
     0
 72
     2
 73
     0
 90
        0
 40
-0.6
 41
-30.0
 62
     5
 63
     7
421
 16777215
 74
     1
 91
        4
 64
     7
 65
   257
 75
     1
175
     1
 42
1.0
 92
        0
 66
   257
 43
1.0
 76
     1
 77
     6
 78
     2
 67
     7
 79
     5
170
     0
171
     0
290
     0
174
     0
 93
        1
 44
0.0
173
     0
291
     0
 45
0.0
1001
ACAD
1000
AcDbSavedByObjectVersion
1070
     0
  0
VISUALSTYLE
  5
9C7
102
{ACAD_XDICTIONARY
360
258F
102
}
102
{ACAD_REACTORS
330
9BF
102
}
330
9BF
100
AcDbVisualStyle
  2

 70
     6
 71
     1
 72
     2
 73
     2
 90
        0
 40
-0.6
 41
-30.0
 62
     5
 63
     7
421
 16777215
 74
     2
 91
        2
 64
     7
 65
   257
 75
     2
175
     1
 42
40.0
 92
        0
 66
   257
 43
1.0
 76
     1
 77
     6
 78
     2
 67
     7
 79
     3
170
     0
171
     0
290
     0
174
     0
 93
        1
 44
0.0
173
     0
291
     0
 45
0.0
1001
ACAD
1000
AcDbSavedByObjectVersion
1070
     0
  0
VISUALSTYLE
  5
9C6
102
{ACAD_XDICTIONARY
360
258D
102
}
102
{ACAD_REACTORS
330
9BF
102
}
330
9BF
100
AcDbVisualStyle
  2

 70
     5
 71
     0
 72
     2
 73
     0
 90
        0
 40
-0.6
 41
-30.0
 62
     5
 63
     7
421
 16777215
 74
     1
 91
        4
 64
     7
 65
   257
 75
     1
175
     1
 42
1.0
 92
        0
 66
   257
 43
1.0
 76
     1
 77
     6
 78
     2
 67
     7
 79
     5
170
     0
171
     0
290
     0
174
     0
 93
        1
 44
0.0
173
     0
291
     0
 45
0.0
1001
ACAD
1000
AcDbSavedByObjectVersion
1070
     0
  0
VISUALSTYLE
  5
9C4
102
{ACAD_XDICTIONARY
360
2589
102
}
102
{ACAD_REACTORS
330
9BF
102
}
330
9BF
100
AcDbVisualStyle
  2

 70
     7
 71
     1
 72
     0
 73
     1
 90
        0
 40
-0.6
 41
-30.0
 62
     5
 63
     7
421
 16777215
 74
     0
 91
        4
 64
     7
 65
   257
 75
     1
175
     1
 42
1.0
 92
        8
 66
     7
 43
1.0
 76
     1
 77
     6
 78
     2
 67
     7
 79
     5
170
     0
171
     0
290
     0
174
     0
 93
        1
 44
0.0
173
     0
291
     1
 45
0.0
1001
ACAD
1000
AcDbSavedByObjectVersion
1070
     0
  0
VISUALSTYLE
  5
9CB
102
{ACAD_XDICTIONARY
360
2597
102
}
102
{ACAD_REACTORS
330
9BF
102
}
330
9BF
100
AcDbVisualStyle
  2

 70
    12
 71
     2
 72
     2
 73
     0
 90
        0
 40
-0.6
 41
-30.0
 62
     5
 63
     7
421
 16777215
 74
     1
 91
        4
 64
     7
 65
   257
 75
     1
175
     1
 42
1.0
 92
        8
 66
     7
 43
1.0
 76
     1
 77
     6
 78
     2
 67
     7
 79
     5
170
     0
171
     0
290
     0
174
     0
 93
        1
 44
50.0
173
     0
291
     1
 45
0.0
1001
ACAD
1000
AcDbSavedByObjectVersion
1070
     0
  0
VISUALSTYLE
  5
9CF
102
{ACAD_XDICTIONARY
360
259F
102
}
102
{ACAD_REACTORS
330
9BF
102
}
330
9BF
100
AcDbVisualStyle
  2

 70
    16
 71
     2
 72
     2
 73
     3
 90
        0
 40
-0.6
 41
-30.0
 62
     5
 63
     8
421
  8421504
 74
     1
 91
        4
 64
     7
 65
   257
 75
     1
175
     1
 42
1.0
 92
        8
 66
     8
424
  8421504
 43
1.0
 76
     1
 77
     6
 78
     2
 67
     7
 79
     5
170
     0
171
     0
290
     0
174
     0
 93
        1
 44
0.0
173
     0
291
     1
 45
0.0
1001
ACAD
1000
AcDbSavedByObjectVersion
1070
     0
  0
VISUALSTYLE
  5
9C8
102
{ACAD_XDICTIONARY
360
2591
102
}
102
{ACAD_REACTORS
330
9BF
102
}
330
9BF
100
AcDbVisualStyle
  2

 70
     9
 71
     3
 72
     2
 73
     0
 90
        0
 40
-0.6
 41
-30.0
 62
     5
 63
     7
421
 16777215
 74
     2
 91
        2
 64
     7
 65
   257
 75
     1
175
     1
 42
40.0
 92
        8
 66
     7
 43
1.0
 76
     1
 77
     6
 78
     2
 67
     7
 79
     3
170
     0
171
     0
290
     0
174
     0
 93
        1
 44
0.0
173
     0
291
     0
 45
0.0
1001
ACAD
1000
AcDbSavedByObjectVersion
1070
     0
  0
VISUALSTYLE
  5
9CA
102
{ACAD_XDICTIONARY
360
2595
102
}
102
{ACAD_REACTORS
330
9BF
102
}
330
9BF
100
AcDbVisualStyle
  2

 70
    11
 71
     2
 72
     2
 73
     0
 90
        0
 40
-0.6
 41
-30.0
 62
     5
 63
     7
421
 16777215
 74
     1
 91
        4
 64
     7
 65
   257
 75
     1
175
     1
 42
1.0
 92
        8
 66
     7
 43
1.0
 76
     1
 77
     6
 78
     2
 67
     7
 79
     5
170
     0
171
     0
290
     0
174
     0
 93
        1
 44
-50.0
173
     0
291
     1
 45
0.0
1001
ACAD
1000
AcDbSavedByObjectVersion
1070
     0
  0
VISUALSTYLE
  5
2172
102
{ACAD_XDICTIONARY
360
25B3
102
}
102
{ACAD_REACTORS
330
9BF
102
}
330
9BF
100
AcDbVisualStyle
  2

 70
    22
 71
     2
 72
     2
 73
     0
 90
        0
 40
-0.6
 41
-30.0
 62
     5
 63
     7
421
 16777215
 74
     1
 91
        4
 64
     7
 65
   257
 75
     1
175
     1
 42
1.0
 92
        8
 66
     7
 43
1.0
 76
     1
 77
     6
 78
     2
 67
     7
 79
     5
170
     0
171
     0
290
     0
174
     0
 93
        1
 44
0.0
173
     0
291
     1
 45
0.0
1001
ACAD
1000
AcDbSavedByObjectVersion
1070
     0
  0
VISUALSTYLE
  5
9CE
102
{ACAD_XDICTIONARY
360
259D
102
}
102
{ACAD_REACTORS
330
9BF
102
}
330
9BF
100
AcDbVisualStyle
  2

 70
    15
 71
     2
 72
     2
 73
     0
 90
        0
 40
-0.6
 41
-30.0
 62
     5
 63
     7
421
 16777215
 74
     1
 91
        4
 64
     7
 65
   257
 75
     1
175
     1
 42
1.0
 92
        8
 66
     7
 43
1.0
 76
     1
 77
     6
 78
     2
 67
     7
 79
     5
170
     0
171
     0
290
     0
174
     0
 93
        1
 44
0.0
173
     0
291
     1
 45
0.0
1001
ACAD
1000
AcDbSavedByObjectVersion
1070
     0
  0
VISUALSTYLE
  5
9C0
102
{ACAD_XDICTIONARY
360
2581
102
}
102
{ACAD_REACTORS
330
9BF
102
}
330
9BF
100
AcDbVisualStyle
  2

 70
     0
 71
     2
 72
     1
 73
     1
 90
        2
 40
-0.6
 41
30.0
 62
     5
 63
     7
421
 16777215
 74
     0
 91
        4
 64
     7
 65
   257
 75
     1
175
     1
 42
1.0
 92
        8
 66
     7
 43
1.0
 76
     1
 77
     6
 78
     2
 67
     7
 79
     5
170
     0
171
     0
290
     0
174
     0
 93
       13
 44
0.0
173
     0
291
     1
 45
0.0
1001
ACAD
1000
AcDbSavedByObjectVersion
1070
     0
  0
VISUALSTYLE
  5
9C1
102
{ACAD_XDICTIONARY
360
2583
102
}
102
{ACAD_REACTORS
330
9BF
102
}
330
9BF
100
AcDbVisualStyle
  2

 70
     1
 71
     2
 72
     1
 73
     1
 90
        2
 40
-0.6
 41
30.0
 62
     5
 63
     7
421
 16777215
 74
     1
 91
        4
 64
     7
 65
   257
 75
     1
175
     1
 42
1.0
 92
        0
 66
   257
 43
1.0
 76
     1
 77
     6
 78
     2
 67
     7
 79
     5
170
     0
171
     0
290
     0
174
     0
 93
       13
 44
0.0
173
     0
291
     1
 45
0.0
1001
ACAD
1000
AcDbSavedByObjectVersion
1070
     0
  0
VISUALSTYLE
  5
9C2
102
{ACAD_XDICTIONARY
360
2585
102
}
102
{ACAD_REACTORS
330
9BF
102
}
330
9BF
100
AcDbVisualStyle
  2

 70
     2
 71
     2
 72
     2
 73
     1
 90
        2
 40
-0.6
 41
30.0
 62
     5
 63
     7
421
 16777215
 74
     0
 91
        4
 64
     7
 65
   257
 75
     1
175
     1
 42
1.0
 92
        0
 66
     7
 43
1.0
 76
     1
 77
     6
 78
     2
 67
     7
 79
     5
170
     0
171
     0
290
     0
174
     0
 93
       13
 44
0.0
173
     0
291
     1
 45
0.0
1001
ACAD
1000
AcDbSavedByObjectVersion
1070
     0
  0
VISUALSTYLE
  5
9C3
102
{ACAD_XDICTIONARY
360
2587
102
}
102
{ACAD_REACTORS
330
9BF
102
}
330
9BF
100
AcDbVisualStyle
  2

 70
     3
 71
     2
 72
     2
 73
     1
 90
        2
 40
-0.6
 41
30.0
 62
     5
 63
     7
421
 16777215
 74
     1
 91
        4
 64
     7
 65
   257
 75
     1
175
     1
 42
1.0
 92
        0
 66
   257
 43
1.0
 76
     1
 77
     6
 78
     2
 67
     7
 79
     5
170
     0
171
     0
290
     0
174
     0
 93
       13
 44
0.0
173
     0
291
     1
 45
0.0
1001
ACAD
1000
AcDbSavedByObjectVersion
1070
     0
  0
VISUALSTYLE
  5
216A
102
{ACAD_XDICTIONARY
360
25A3
102
}
102
{ACAD_REACTORS
330
9BF
102
}
330
9BF
100
AcDbVisualStyle
  2

 70
     6
 71
     1
 72
     2
 73
     2
 90
        0
 40
-0.6
 41
-30.0
 62
     5
 63
     7
421
 16777215
 74
     2
 91
        2
 64
     7
 65
   257
 75
     2
175
     1
 42
40.0
 92
        0
 66
   257
 43
1.0
 76
     1
 77
     6
 78
     2
 67
     7
 79
     3
170
     0
171
     0
290
     0
174
     0
 93
        1
 44
0.0
173
     0
291
     0
 45
0.0
1001
ACAD
1000
AcDbSavedByObjectVersion
1070
     0
  0
VISUALSTYLE
  5
2170
102
{ACAD_XDICTIONARY
360
25AF
102
}
102
{ACAD_REACTORS
330
9BF
102
}
330
9BF
100
AcDbVisualStyle
  2

 70
    20
 71
     2
 72
     2
 73
     0
 90
        0
 40
-0.6
 41
-30.0
 62
     5
 63
     7
421
 16777215
 74
     1
 91
        4
 64
     7
 65
   257
 75
     1
175
     1
 42
1.0
 92
       10
 66
     7
 43
1.0
 76
     1
 77
     6
 78
     2
 67
     7
 79
     5
170
     0
171
     0
290
     0
174
     0
 93
        1
 44
0.0
173
     0
291
     1
 45
0.0
1001
ACAD
1000
AcDbSavedByObjectVersion
1070
     0
  0
VISUALSTYLE
  5
9CD
102
{ACAD_XDICTIONARY
360
259B
102
}
102
{ACAD_REACTORS
330
9BF
102
}
330
9BF
100
AcDbVisualStyle
  2

 70
    14
 71
     2
 72
     2
 73
     0
 90
        0
 40
-0.6
 41
-30.0
 62
     5
 63
     7
421
 16777215
 74
     1
 91
        4
 64
     7
 65
   257
 75
     7
175
     7
 42
1.0
 92
        8
 66
     7
 43
1.0
 76
     1
 77
     6
 78
     2
 67
     7
 79
     5
170
     0
171
     0
290
     0
174
     0
 93
        1
 44
0.0
173
     0
291
     1
 45
0.0
1001
ACAD
1000
AcDbSavedByObjectVersion
1070
     0
  0
VISUALSTYLE
  5
2171
102
{ACAD_XDICTIONARY
360
25B1
102
}
102
{ACAD_REACTORS
330
9BF
102
}
330
9BF
100
AcDbVisualStyle
  2

 70
    21
 71
     2
 72
     2
 73
     0
 90
        0
 40
-0.6
 41
-30.0
 62
     5
 63
     7
421
 16777215
 74
     1
 91
        4
 64
     7
 65
   257
 75
     1
175
     1
 42
1.0
 92
        9
 66
     7
 43
1.0
 76
     1
 77
     6
 78
     2
 67
     7
 79
     5
170
     0
171
     0
290
     0
174
     0
 93
        1
 44
0.0
173
     0
291
     1
 45
0.0
1001
ACAD
1000
AcDbSavedByObjectVersion
1070
     0
  0
VISUALSTYLE
  5
9C9
102
{ACAD_XDICTIONARY
360
2593
102
}
102
{ACAD_REACTORS
330
9BF
102
}
330
9BF
100
AcDbVisualStyle
  2

 70
     8
 71
     2
 72
     2
 73
     0
 90
        0
 40
-0.6
 41
-30.0
 62
     5
 63
     7
421
 16777215
 74
     1
 91
        0
 64
     7
 65
   257
 75
     1
175
     1
 42
1.0
 92
        8
 66
     8
424
  7895160
 43
1.0
 76
     1
 77
     6
 78
     2
 67
     7
 79
     5
170
     0
171
     0
290
     0
174
     0
 93
       13
 44
0.0
173
     0
291
     0
 45
0.0
1001
ACAD
1000
AcDbSavedByObjectVersion
1070
     0
  0
VISUALSTYLE
  5
216F
102
{ACAD_XDICTIONARY
360
25AD
102
}
102
{ACAD_REACTORS
330
9BF
102
}
330
9BF
100
AcDbVisualStyle
  2

 70
    27
 71
     2
 72
     2
 73
     1
 90
        2
 40
-0.6
 41
30.0
 62
     5
 63
     7
421
 16777215
 74
     0
 91
        4
 64
     7
 65
   257
 75
     1
175
     1
 42
1.0
 92
        8
 66
   257
 43
1.0
 76
     1
 77
     6
 78
     2
 67
     8
425
  7895160
 79
     3
170
     0
171
     0
290
     0
174
     0
 93
        5
 44
0.0
173
     0
291
     0
 45
0.0
1001
ACAD
1000
AcDbSavedByObjectVersion
1070
     0
  0
VISUALSTYLE
  5
216E
102
{ACAD_XDICTIONARY
360
25AB
102
}
102
{ACAD_REACTORS
330
9BF
102
}
330
9BF
100
AcDbVisualStyle
  2

 70
    26
 71
     2
 72
     2
 73
     1
 90
        2
 40
-0.6
 41
30.0
 62
     5
 63
     7
421
 16777215
 74
     1
 91
        2
 64
     7
 65
   257
 75
     2
175
     1
 42
1.0
 92
        8
 66
   257
 43
1.0
 76
     1
 77
     6
 78
     2
 67
     7
 79
     3
170
     0
171
     0
290
     0
174
     0
 93
        5
 44
0.0
173
     0
291
     0
 45
0.0
1001
ACAD
1000
AcDbSavedByObjectVersion
1070
     0
  0
VISUALSTYLE
  5
216B
102
{ACAD_XDICTIONARY
360
25A5
102
}
102
{ACAD_REACTORS
330
9BF
102
}
330
9BF
100
AcDbVisualStyle
  2

 70
    23
 71
     2
 72
     2
 73
     3
 90
        0
 40
-0.6
 41
-30.0
 62
     5
 63
     7
421
 16777215
 74
     2
 91
        2
 64
     7
 65
     7
 75
     1
175
     1
 42
40.0
 92
        8
 66
     7
 43
1.0
 76
     1
 77
     6
 78
     2
 67
     7
 79
     3
170
     0
171
     0
290
     0
174
     0
 93
        1
 44
0.0
173
     0
291
     0
 45
0.0
1001
ACAD
1000
AcDbSavedByObjectVersion
1070
     0
  0
VISUALSTYLE
  5
216C
102
{ACAD_XDICTIONARY
360
25A7
102
}
102
{ACAD_REACTORS
330
9BF
102
}
330
9BF
100
AcDbVisualStyle
  2

 70
    24
 71
     1
 72
     2
 73
     2
 90
        0
 40
-0.6
 41
-30.0
 62
     5
 63
     7
421
 16777215
 74
     2
 91
        2
 64
     7
 65
     7
 75
     1
175
     1
 42
40.0
 92
       11
 66
     7
 43
1.0
 76
     1
 77
     6
 78
     2
 67
     7
 79
     6
170
     0
171
     0
290
     0
174
     0
 93
        1
 44
0.0
173
     0
291
     0
 45
0.0
1001
ACAD
1000
AcDbSavedByObjectVersion
1070
     0
  0
VISUALSTYLE
  5
9CC
102
{ACAD_XDICTIONARY
360
2599
102
}
102
{ACAD_REACTORS
330
9BF
102
}
330
9BF
100
AcDbVisualStyle
  2

 70
    13
 71
     2
 72
     2
 73
     0
 90
        0
 40
-0.6
 41
-30.0
 62
     5
 63
     7
421
 16777215
 74
     1
 91
        4
 64
     7
 65
   257
 75
     1
175
     1
 42
1.0
 92
       12
 66
     7
 43
1.0
 76
     1
 77
     6
 78
     2
 67
     7
 79
     5
170
     0
171
     0
290
     0
174
     0
 93
        1
 44
0.0
173
     0
291
     1
 45
0.0
1001
ACAD
1000
AcDbSavedByObjectVersion
1070
     0
  0
VISUALSTYLE
  5
2169
102
{ACAD_XDICTIONARY
360
25A1
102
}
102
{ACAD_REACTORS
330
9BF
102
}
330
9BF
100
AcDbVisualStyle
  2

 70
     5
 71
     0
 72
     2
 73
     0
 90
        0
 40
-0.6
 41
-30.0
 62
     5
 63
     7
421
 16777215
 74
     1
 91
        4
 64
     7
 65
   257
 75
     1
175
     1
 42
1.0
 92
        0
 66
   257
 43
1.0
 76
     1
 77
     6
 78
     2
 67
     7
 79
     3
170
     0
171
     0
290
     0
174
     0
 93
        1
 44
0.0
173
     0
291
     0
 45
0.0
1001
ACAD
1000
AcDbSavedByObjectVersion
1070
     0
  0
VISUALSTYLE
  5
216D
102
{ACAD_XDICTIONARY
360
25A9
102
}
102
{ACAD_REACTORS
330
9BF
102
}
330
9BF
100
AcDbVisualStyle
  2

 70
    25
 71
     2
 72
     2
 73
     1
 90
        1
 40
0.5
 41
-30.0
 62
     5
 63
     7
421
 16777215
 74
     1
 91
        0
 64
     7
 65
   257
 75
     1
175
     1
 42
1.0
 92
        8
 66
     7
 43
1.0
 76
     1
 77
     6
 78
     2
 67
     7
 79
     3
170
     0
171
     0
290
     0
174
     0
 93
       13
 44
0.0
173
     0
291
     0
 45
0.0
1001
ACAD
1000
AcDbSavedByObjectVersion
1070
     0
  0
DICTIONARYVAR
  5
24E3
102
{ACAD_REACTORS
330
17C
102
}
330
17C
100
DictionaryVariables
280
     0
  1
1:1
  0
DICTIONARYVAR
  5
24DF
102
{ACAD_REACTORS
330
17C
102
}
330
17C
100
DictionaryVariables
280
     0
  1
STANDARD
  0
DICTIONARYVAR
  5
17D
102
{ACAD_REACTORS
330
17C
102
}
330
17C
100
DictionaryVariables
280
     0
  1
STANDARD
  0
DICTIONARYVAR
  5
24E0
102
{ACAD_REACTORS
330
17C
102
}
330
17C
100
DictionaryVariables
280
     0
  1
Metric50
  0
DICTIONARYVAR
  5
24E1
102
{ACAD_REACTORS
330
17C
102
}
330
17C
100
DictionaryVariables
280
     0
  1
Metric50
  0
DICTIONARYVAR
  5
24E5
102
{ACAD_REACTORS
330
17C
102
}
330
17C
100
DictionaryVariables
280
     0
  1
1
  0
DICTIONARYVAR
  5
24E6
102
{ACAD_REACTORS
330
17C
102
}
330
17C
100
DictionaryVariables
280
     0
  1
15
  0
DICTIONARYVAR
  5
24E4
102
{ACAD_REACTORS
330
17C
102
}
330
17C
100
DictionaryVariables
280
     0
  1
0
  0
DICTIONARYVAR
  5
24E2
102
{ACAD_REACTORS
330
17C
102
}
330
17C
100
DictionaryVariables
280
     0
  1
0
  0
DICTIONARY
  5
8D
102
{ACAD_REACTORS
330
8B
102
}
330
8B
100
AcDbDictionary
281
     1
  0
XRECORD
  5
AC
102
{ACAD_REACTORS
330
8B
102
}
330
8B
100
AcDbXrecord
280
     1
 90
-1023410169
  0
DICTIONARY
  5
25B9
330
218A
100
AcDbDictionary
280
     1
281
     1
  3
ACAD_XREC_ROUNDTRIP
360
25BA
  0
DICTIONARY
  5
25B5
330
2186
100
AcDbDictionary
280
     1
281
     1
  3
ACAD_XREC_ROUNDTRIP
360
25B6
  0
DICTIONARY
  5
25B7
330
2188
100
AcDbDictionary
280
     1
281
     1
  3
ACAD_XREC_ROUNDTRIP
360
25B8
  0
DICTIONARY
  5
24E7
330
1E
100
AcDbDictionary
280
     1
281
     1
  3
ACAD_ROUNDTRIP_2008_TABLESTYLE_CELLSTYLEMAP
360
257F
  0
DICTIONARY
  5
258B
330
9C5
100
AcDbDictionary
280
     1
281
     1
  3
ACAD_XREC_ROUNDTRIP
360
258C
  0
DICTIONARY
  5
258F
330
9C7
100
AcDbDictionary
280
     1
281
     1
  3
ACAD_XREC_ROUNDTRIP
360
2590
  0
DICTIONARY
  5
258D
330
9C6
100
AcDbDictionary
280
     1
281
     1
  3
ACAD_XREC_ROUNDTRIP
360
258E
  0
DICTIONARY
  5
2589
330
9C4
100
AcDbDictionary
280
     1
281
     1
  3
ACAD_XREC_ROUNDTRIP
360
258A
  0
DICTIONARY
  5
2597
330
9CB
100
AcDbDictionary
280
     1
281
     1
  3
ACAD_XREC_ROUNDTRIP
360
2598
  0
DICTIONARY
  5
259F
330
9CF
100
AcDbDictionary
280
     1
281
     1
  3
ACAD_XREC_ROUNDTRIP
360
25A0
  0
DICTIONARY
  5
2591
330
9C8
100
AcDbDictionary
280
     1
281
     1
  3
ACAD_XREC_ROUNDTRIP
360
2592
  0
DICTIONARY
  5
2595
330
9CA
100
AcDbDictionary
280
     1
281
     1
  3
ACAD_XREC_ROUNDTRIP
360
2596
  0
DICTIONARY
  5
25B3
330
2172
100
AcDbDictionary
280
     1
281
     1
  3
ACAD_XREC_ROUNDTRIP
360
25B4
  0
DICTIONARY
  5
259D
330
9CE
100
AcDbDictionary
280
     1
281
     1
  3
ACAD_XREC_ROUNDTRIP
360
259E
  0
DICTIONARY
  5
2581
330
9C0
100
AcDbDictionary
280
     1
281
     1
  3
ACAD_XREC_ROUNDTRIP
360
2582
  0
DICTIONARY
  5
2583
330
9C1
100
AcDbDictionary
280
     1
281
     1
  3
ACAD_XREC_ROUNDTRIP
360
2584
  0
DICTIONARY
  5
2585
330
9C2
100
AcDbDictionary
280
     1
281
     1
  3
ACAD_XREC_ROUNDTRIP
360
2586
  0
DICTIONARY
  5
2587
330
9C3
100
AcDbDictionary
280
     1
281
     1
  3
ACAD_XREC_ROUNDTRIP
360
2588
  0
DICTIONARY
  5
25A3
330
216A
100
AcDbDictionary
280
     1
281
     1
  3
ACAD_XREC_ROUNDTRIP
360
25A4
  0
DICTIONARY
  5
25AF
330
2170
100
AcDbDictionary
280
     1
281
     1
  3
ACAD_XREC_ROUNDTRIP
360
25B0
  0
DICTIONARY
  5
259B
330
9CD
100
AcDbDictionary
280
     1
281
     1
  3
ACAD_XREC_ROUNDTRIP
360
259C
  0
DICTIONARY
  5
25B1
330
2171
100
AcDbDictionary
280
     1
281
     1
  3
ACAD_XREC_ROUNDTRIP
360
25B2
  0
DICTIONARY
  5
2593
330
9C9
100
AcDbDictionary
280
     1
281
     1
  3
ACAD_XREC_ROUNDTRIP
360
2594
  0
DICTIONARY
  5
25AD
330
216F
100
AcDbDictionary
280
     1
281
     1
  3
ACAD_XREC_ROUNDTRIP
360
25AE
  0
DICTIONARY
  5
25AB
330
216E
100
AcDbDictionary
280
     1
281
     1
  3
ACAD_XREC_ROUNDTRIP
360
25AC
  0
DICTIONARY
  5
25A5
330
216B
100
AcDbDictionary
280
     1
281
     1
  3
ACAD_XREC_ROUNDTRIP
360
25A6
  0
DICTIONARY
  5
25A7
330
216C
100
AcDbDictionary
280
     1
281
     1
  3
ACAD_XREC_ROUNDTRIP
360
25A8
  0
DICTIONARY
  5
2599
330
9CC
100
AcDbDictionary
280
     1
281
     1
  3
ACAD_XREC_ROUNDTRIP
360
259A
  0
DICTIONARY
  5
25A1
330
2169
100
AcDbDictionary
280
     1
281
     1
  3
ACAD_XREC_ROUNDTRIP
360
25A2
  0
DICTIONARY
  5
25A9
330
216D
100
AcDbDictionary
280
     1
281
     1
  3
ACAD_XREC_ROUNDTRIP
360
25AA
  0
XRECORD
  5
25BA
102
{ACAD_REACTORS
330
25B9
102
}
330
25B9
100
AcDbXrecord
280
     1
102
DISPLAYNAME
  1
Metric50
102
FLAGS
 90
        0
  0
XRECORD
  5
25B6
102
{ACAD_REACTORS
330
25B5
102
}
330
25B5
100
AcDbXrecord
280
     1
102
ACAD_ROUNDTRIP_2012_MLEADER_STYLE
298
     1
  0
XRECORD
  5
25B8
102
{ACAD_REACTORS
330
25B7
102
}
330
25B7
100
AcDbXrecord
280
     1
102
DISPLAYNAME
  1
Metric50
102
FLAGS
 90
        0
  0
CELLSTYLEMAP
  5
257F
102
{ACAD_REACTORS
330
24E7
102
}
330
24E7
100
AcDbCellStyleMap
 90
        3
300
CELLSTYLE
  1
TABLEFORMAT_BEGIN
 90
        5
170
     1
 91
        0
 92
    32768
 62
   257
 93
        1
300
CONTENTFORMAT
  1
CONTENTFORMAT_BEGIN
 90
        0
 91
        0
 92
        4
 93
        0
300

 40
0.0
140
1.0
 94
        5
 62
     0
340
11
144
6.0
309
CONTENTFORMAT_END
171
     1
301
MARGIN
  1
CELLMARGIN_BEGIN
 40
1.5
 40
1.5
 40
1.5
 40
1.5
 40
0.18
 40
0.18
309
CELLMARGIN_END
 94
        6
 95
        1
302
GRIDFORMAT
  1
GRIDFORMAT_BEGIN
 90
        0
 91
        1
 62
     0
 92
       -2
340
0
 93
        0
 40
0.045
309
GRIDFORMAT_END
 95
        2
302
GRIDFORMAT
  1
GRIDFORMAT_BEGIN
 90
        0
 91
        1
 62
     0
 92
       -2
340
0
 93
        0
 40
0.045
309
GRIDFORMAT_END
 95
        4
302
GRIDFORMAT
  1
GRIDFORMAT_BEGIN
 90
        0
 91
        1
 62
     0
 92
       -2
340
0
 93
        0
 40
0.045
309
GRIDFORMAT_END
 95
        8
302
GRIDFORMAT
  1
GRIDFORMAT_BEGIN
 90
        0
 91
        1
 62
     0
 92
       -2
340
0
 93
        0
 40
0.045
309
GRIDFORMAT_END
 95
       16
302
GRIDFORMAT
  1
GRIDFORMAT_BEGIN
 90
        0
 91
        1
 62
     0
 92
       -2
340
0
 93
        0
 40
0.045
309
GRIDFORMAT_END
 95
       32
302
GRIDFORMAT
  1
GRIDFORMAT_BEGIN
 90
        0
 91
        1
 62
     0
 92
       -2
340
0
 93
        0
 40
0.045
309
GRIDFORMAT_END
309
TABLEFORMAT_END
  1
CELLSTYLE_BEGIN
 90
        1
 91
        1
300
_TITLE
309
CELLSTYLE_END
300
CELLSTYLE
  1
TABLEFORMAT_BEGIN
 90
        5
170
     1
 91
        0
 92
        0
 62
   257
 93
        1
300
CONTENTFORMAT
  1
CONTENTFORMAT_BEGIN
 90
        0
 91
        0
 92
        4
 93
        0
300

 40
0.0
140
1.0
 94
        5
 62
     0
340
11
144
4.5
309
CONTENTFORMAT_END
171
     1
301
MARGIN
  1
CELLMARGIN_BEGIN
 40
1.5
 40
1.5
 40
1.5
 40
1.5
 40
0.18
 40
0.18
309
CELLMARGIN_END
 94
        6
 95
        1
302
GRIDFORMAT
  1
GRIDFORMAT_BEGIN
 90
        0
 91
        1
 62
     0
 92
       -2
340
0
 93
        0
 40
0.045
309
GRIDFORMAT_END
 95
        2
302
GRIDFORMAT
  1
GRIDFORMAT_BEGIN
 90
        0
 91
        1
 62
     0
 92
       -2
340
0
 93
        0
 40
0.045
309
GRIDFORMAT_END
 95
        4
302
GRIDFORMAT
  1
GRIDFORMAT_BEGIN
 90
        0
 91
        1
 62
     0
 92
       -2
340
0
 93
        0
 40
0.045
309
GRIDFORMAT_END
 95
        8
302
GRIDFORMAT
  1
GRIDFORMAT_BEGIN
 90
        0
 91
        1
 62
     0
 92
       -2
340
0
 93
        0
 40
0.045
309
GRIDFORMAT_END
 95
       16
302
GRIDFORMAT
  1
GRIDFORMAT_BEGIN
 90
        0
 91
        1
 62
     0
 92
       -2
340
0
 93
        0
 40
0.045
309
GRIDFORMAT_END
 95
       32
302
GRIDFORMAT
  1
GRIDFORMAT_BEGIN
 90
        0
 91
        1
 62
     0
 92
       -2
340
0
 93
        0
 40
0.045
309
GRIDFORMAT_END
309
TABLEFORMAT_END
  1
CELLSTYLE_BEGIN
 90
        2
 91
        1
300
_HEADER
309
CELLSTYLE_END
300
CELLSTYLE
  1
TABLEFORMAT_BEGIN
 90
        5
170
     1
 91
        0
 92
        0
 62
   257
 93
        1
300
CONTENTFORMAT
  1
CONTENTFORMAT_BEGIN
 90
        0
 91
        0
 92
        4
 93
        0
300

 40
0.0
140
1.0
 94
        2
 62
     0
340
11
144
4.5
309
CONTENTFORMAT_END
171
     1
301
MARGIN
  1
CELLMARGIN_BEGIN
 40
1.5
 40
1.5
 40
1.5
 40
1.5
 40
0.18
 40
0.18
309
CELLMARGIN_END
 94
        6
 95
        1
302
GRIDFORMAT
  1
GRIDFORMAT_BEGIN
 90
        0
 91
        1
 62
     0
 92
       -2
340
0
 93
        0
 40
0.045
309
GRIDFORMAT_END
 95
        2
302
GRIDFORMAT
  1
GRIDFORMAT_BEGIN
 90
        0
 91
        1
 62
     0
 92
       -2
340
0
 93
        0
 40
0.045
309
GRIDFORMAT_END
 95
        4
302
GRIDFORMAT
  1
GRIDFORMAT_BEGIN
 90
        0
 91
        1
 62
     0
 92
       -2
340
0
 93
        0
 40
0.045
309
GRIDFORMAT_END
 95
        8
302
GRIDFORMAT
  1
GRIDFORMAT_BEGIN
 90
        0
 91
        1
 62
     0
 92
       -2
340
0
 93
        0
 40
0.045
309
GRIDFORMAT_END
 95
       16
302
GRIDFORMAT
  1
GRIDFORMAT_BEGIN
 90
        0
 91
        1
 62
     0
 92
       -2
340
0
 93
        0
 40
0.045
309
GRIDFORMAT_END
 95
       32
302
GRIDFORMAT
  1
GRIDFORMAT_BEGIN
 90
        0
 91
        1
 62
     0
 92
       -2
340
0
 93
        0
 40
0.045
309
GRIDFORMAT_END
309
TABLEFORMAT_END
  1
CELLSTYLE_BEGIN
 90
        3
 91
        2
300
_DATA
309
CELLSTYLE_END
  0
XRECORD
  5
258C
102
{ACAD_REACTORS
330
258B
102
}
330
258B
100
AcDbXrecord
280
     1
102
RTVSPost2010Prop28
280
     1
102
RTVSPost2010PropOp28
 70
     1
102
RTVSPost2010Prop29
280
     1
102
RTVSPost2010PropOp29
 70
     1
102
RTVSPost2010Prop30
280
     0
102
RTVSPost2010PropOp30
 70
     1
102
RTVSPost2010Prop31
280
     0
102
RTVSPost2010PropOp31
 70
     1
102
RTVSPost2010Prop32
280
     0
102
RTVSPost2010PropOp32
 70
     1
102
RTVSPost2010Prop33
280
     0
102
RTVSPost2010PropOp33
 70
     1
102
RTVSPost2010Prop34
280
     0
102
RTVSPost2010PropOp34
 70
     1
102
RTVSPost2010Prop35
280
     0
102
RTVSPost2010PropOp35
 70
     1
102
RTVSPost2010Prop36
280
     0
102
RTVSPost2010PropOp36
 70
     1
102
RTVSPost2010Prop37
 90
       50
102
RTVSPost2010PropOp37
 70
     1
102
RTVSPost2010Prop38
140
0.0
102
RTVSPost2010PropOp38
 70
     1
102
RTVSPost2010Prop39
140
1.0
102
RTVSPost2010PropOp39
 70
     1
102
RTVSPost2010Prop40
 90
        0
102
RTVSPost2010PropOp40
 70
     1
102
RTVSPost2010Prop41ColorIndex
 90
       18
102
RTVSPost2010Prop41ColorRGB
 90
        0
102
RTVSPost2010PropOp41
 70
     1
102
RTVSPost2010Prop42
 90
       50
102
RTVSPost2010PropOp42
 70
     1
102
RTVSPost2010Prop43
 90
        3
102
RTVSPost2010PropOp43
 70
     1
102
RTVSPost2010Prop44ColorIndex
 90
        5
102
RTVSPost2010Prop44ColorRGB
 90
      255
102
RTVSPost2010PropOp44
 70
     1
102
RTVSPost2010Prop45
280
     0
102
RTVSPost2010PropOp45
 70
     1
102
RTVSPost2010Prop46
 90
       50
102
RTVSPost2010PropOp46
 70
     1
102
RTVSPost2010Prop47
 90
       50
102
RTVSPost2010PropOp47
 70
     1
102
RTVSPost2010Prop48
 90
       50
102
RTVSPost2010PropOp48
 70
     1
102
RTVSPost2010Prop49
280
     0
102
RTVSPost2010PropOp49
 70
     1
102
RTVSPost2010Prop50
 90
       50
102
RTVSPost2010PropOp50
 70
     1
102
RTVSPost2010Prop51ColorIndex
 90
      256
102
RTVSPost2010Prop51ColorRGB
 90
-16777216
102
RTVSPost2010PropOp51
 70
     0
102
RTVSPost2010Prop52
140
1.0
102
RTVSPost2010PropOp52
 70
     0
102
RTVSPost2010Prop53
 90
        2
102
RTVSPost2010PropOp53
 70
     1
102
RTVSPost2010Prop54
  1
strokes_ogs.tif
102
RTVSPost2010PropOp54
 70
     1
102
RTVSPost2010Prop55
280
     0
102
RTVSPost2010PropOp55
 70
     1
102
RTVSPost2010Prop56
140
1.0
102
RTVSPost2010PropOp56
 70
     1
102
RTVSPost2010Prop57
140
1.0
102
RTVSPost2010PropOp57
 70
     1
102
RTVSPropertyOp0
 70
     1
102
RTVSPropertyOp1
 70
     1
102
RTVSPropertyOp2
 70
     1
102
RTVSPropertyOp3
 70
     1
102
RTVSPropertyOp4
 70
     1
102
RTVSPropertyOp5
 70
     1
102
RTVSPropertyOp6
 70
     1
102
RTVSPropertyOp7
 70
     1
102
RTVSPropertyOp8
 70
     1
102
RTVSPropertyOp9
 70
     1
102
RTVSPropertyOp10
 70
     1
102
RTVSPropertyOp11
 70
     1
102
RTVSPropertyOp12
 70
     1
102
RTVSPropertyOp13
 70
     1
102
RTVSPropertyOp14
 70
     1
102
RTVSPropertyOp15
 70
     1
102
RTVSPropertyOp16
 70
     1
102
RTVSPropertyOp17
 70
     1
102
RTVSPropertyOp18
 70
     1
102
RTVSPropertyOp19
 70
     1
102
RTVSPropertyOp20
 70
     1
102
RTVSPropertyOp21
 70
     1
102
RTVSPropertyOp22
 70
     1
102
RTVSPropertyOp23
 70
     1
102
RTVSPropertyOp24
 70
     1
102
RTVSPropertyOp25
 70
     1
102
RTVSPropertyOp26
 70
     1
102
RTVSPropertyOp27
 70
     1
102
RTVSPropertyOp28
 70
     1
102
RTVSPropertyOp29
 70
     1
102
RTVSPropertyOp30
 70
     1
102
RTVSPropertyOp31
 70
     1
102
RTVSPropertyOp32
 70
     1
102
RTVSPropertyOp33
 70
     1
102
RTVSPropertyOp34
 70
     1
102
RTVSPropertyOp35
 70
     1
102
RTVSPropertyOp36
 70
     1
102
RTVSPropertyOp37
 70
     1
102
RTVSPropertyOp38
 70
     1
102
RTVSPropertyOp39
 70
     1
102
RTVSPropertyOp40
 70
     1
102
RTVSPropertyOp41
 70
     1
102
RTVSPropertyOp42
 70
     1
102
RTVSPropertyOp43
 70
     1
102
RTVSPropertyOp44
 70
     1
102
RTVSPropertyOp45
 70
     1
102
RTVSPropertyOp46
 70
     1
102
RTVSPropertyOp47
 70
     1
102
RTVSPropertyOp48
 70
     1
102
RTVSPropertyOp49
 70
     1
102
RTVSPropertyOp50
 70
     1
102
RTVSPropertyOp51
 70
     0
102
RTVSPropertyOp52
 70
     0
102
RTVSPropertyOp53
 70
     1
102
RTVSPropertyOp54
 70
     1
102
RTVSPropertyOp55
 70
     1
102
RTVSPropertyOp56
 70
     1
102
RTVSPropertyOp57
 70
     1
102
RTVSPropertyOp58
 70
     1
102
RTVSPropertyOp59
 70
     1
102
RTVSPropertyOp60
 70
     1
102
RTVSPropertyOp61
 70
     1
102
RTVSPropertyOp62
 70
     1
  0
XRECORD
  5
2590
102
{ACAD_REACTORS
330
258F
102
}
330
258F
100
AcDbXrecord
280
     1
102
RTVSPost2010Prop28
280
     0
102
RTVSPost2010PropOp28
 70
     1
102
RTVSPost2010Prop29
280
     1
102
RTVSPost2010PropOp29
 70
     1
102
RTVSPost2010Prop30
280
     1
102
RTVSPost2010PropOp30
 70
     1
102
RTVSPost2010Prop31
280
     0
102
RTVSPost2010PropOp31
 70
     1
102
RTVSPost2010Prop32
280
     0
102
RTVSPost2010PropOp32
 70
     1
102
RTVSPost2010Prop33
280
     0
102
RTVSPost2010PropOp33
 70
     1
102
RTVSPost2010Prop34
280
     0
102
RTVSPost2010PropOp34
 70
     1
102
RTVSPost2010Prop35
280
     0
102
RTVSPost2010PropOp35
 70
     1
102
RTVSPost2010Prop36
280
     0
102
RTVSPost2010PropOp36
 70
     1
102
RTVSPost2010Prop37
 90
       50
102
RTVSPost2010PropOp37
 70
     1
102
RTVSPost2010Prop38
140
0.0
102
RTVSPost2010PropOp38
 70
     1
102
RTVSPost2010Prop39
140
1.0
102
RTVSPost2010PropOp39
 70
     1
102
RTVSPost2010Prop40
 90
        0
102
RTVSPost2010PropOp40
 70
     1
102
RTVSPost2010Prop41ColorIndex
 90
       18
102
RTVSPost2010Prop41ColorRGB
 90
        0
102
RTVSPost2010PropOp41
 70
     1
102
RTVSPost2010Prop42
 90
       50
102
RTVSPost2010PropOp42
 70
     1
102
RTVSPost2010Prop43
 90
        3
102
RTVSPost2010PropOp43
 70
     1
102
RTVSPost2010Prop44ColorIndex
 90
        5
102
RTVSPost2010Prop44ColorRGB
 90
      255
102
RTVSPost2010PropOp44
 70
     1
102
RTVSPost2010Prop45
280
     0
102
RTVSPost2010PropOp45
 70
     1
102
RTVSPost2010Prop46
 90
       50
102
RTVSPost2010PropOp46
 70
     1
102
RTVSPost2010Prop47
 90
       50
102
RTVSPost2010PropOp47
 70
     1
102
RTVSPost2010Prop48
 90
       50
102
RTVSPost2010PropOp48
 70
     1
102
RTVSPost2010Prop49
280
     0
102
RTVSPost2010PropOp49
 70
     1
102
RTVSPost2010Prop50
 90
       50
102
RTVSPost2010PropOp50
 70
     1
102
RTVSPost2010Prop51ColorIndex
 90
      256
102
RTVSPost2010Prop51ColorRGB
 90
-16777216
102
RTVSPost2010PropOp51
 70
     0
102
RTVSPost2010Prop52
140
1.0
102
RTVSPost2010PropOp52
 70
     0
102
RTVSPost2010Prop53
 90
        2
102
RTVSPost2010PropOp53
 70
     1
102
RTVSPost2010Prop54
  1
strokes_ogs.tif
102
RTVSPost2010PropOp54
 70
     1
102
RTVSPost2010Prop55
280
     0
102
RTVSPost2010PropOp55
 70
     1
102
RTVSPost2010Prop56
140
1.0
102
RTVSPost2010PropOp56
 70
     1
102
RTVSPost2010Prop57
140
1.0
102
RTVSPost2010PropOp57
 70
     1
102
RTVSPropertyOp0
 70
     1
102
RTVSPropertyOp1
 70
     1
102
RTVSPropertyOp2
 70
     1
102
RTVSPropertyOp3
 70
     1
102
RTVSPropertyOp4
 70
     1
102
RTVSPropertyOp5
 70
     1
102
RTVSPropertyOp6
 70
     1
102
RTVSPropertyOp7
 70
     1
102
RTVSPropertyOp8
 70
     1
102
RTVSPropertyOp9
 70
     1
102
RTVSPropertyOp10
 70
     1
102
RTVSPropertyOp11
 70
     1
102
RTVSPropertyOp12
 70
     1
102
RTVSPropertyOp13
 70
     1
102
RTVSPropertyOp14
 70
     1
102
RTVSPropertyOp15
 70
     1
102
RTVSPropertyOp16
 70
     1
102
RTVSPropertyOp17
 70
     1
102
RTVSPropertyOp18
 70
     1
102
RTVSPropertyOp19
 70
     1
102
RTVSPropertyOp20
 70
     1
102
RTVSPropertyOp21
 70
     1
102
RTVSPropertyOp22
 70
     1
102
RTVSPropertyOp23
 70
     1
102
RTVSPropertyOp24
 70
     1
102
RTVSPropertyOp25
 70
     1
102
RTVSPropertyOp26
 70
     1
102
RTVSPropertyOp27
 70
     1
102
RTVSPropertyOp28
 70
     1
102
RTVSPropertyOp29
 70
     1
102
RTVSPropertyOp30
 70
     1
102
RTVSPropertyOp31
 70
     1
102
RTVSPropertyOp32
 70
     1
102
RTVSPropertyOp33
 70
     1
102
RTVSPropertyOp34
 70
     1
102
RTVSPropertyOp35
 70
     1
102
RTVSPropertyOp36
 70
     1
102
RTVSPropertyOp37
 70
     1
102
RTVSPropertyOp38
 70
     1
102
RTVSPropertyOp39
 70
     1
102
RTVSPropertyOp40
 70
     1
102
RTVSPropertyOp41
 70
     1
102
RTVSPropertyOp42
 70
     1
102
RTVSPropertyOp43
 70
     1
102
RTVSPropertyOp44
 70
     1
102
RTVSPropertyOp45
 70
     1
102
RTVSPropertyOp46
 70
     1
102
RTVSPropertyOp47
 70
     1
102
RTVSPropertyOp48
 70
     1
102
RTVSPropertyOp49
 70
     1
102
RTVSPropertyOp50
 70
     1
102
RTVSPropertyOp51
 70
     0
102
RTVSPropertyOp52
 70
     0
102
RTVSPropertyOp53
 70
     1
102
RTVSPropertyOp54
 70
     1
102
RTVSPropertyOp55
 70
     1
102
RTVSPropertyOp56
 70
     1
102
RTVSPropertyOp57
 70
     1
102
RTVSPropertyOp58
 70
     1
102
RTVSPropertyOp59
 70
     1
102
RTVSPropertyOp60
 70
     1
102
RTVSPropertyOp61
 70
     1
102
RTVSPropertyOp62
 70
     1
  0
XRECORD
  5
258E
102
{ACAD_REACTORS
330
258D
102
}
330
258D
100
AcDbXrecord
280
     1
102
RTVSPost2010Prop28
280
     0
102
RTVSPost2010PropOp28
 70
     1
102
RTVSPost2010Prop29
280
     1
102
RTVSPost2010PropOp29
 70
     1
102
RTVSPost2010Prop30
280
     1
102
RTVSPost2010PropOp30
 70
     1
102
RTVSPost2010Prop31
280
     0
102
RTVSPost2010PropOp31
 70
     1
102
RTVSPost2010Prop32
280
     0
102
RTVSPost2010PropOp32
 70
     1
102
RTVSPost2010Prop33
280
     0
102
RTVSPost2010PropOp33
 70
     1
102
RTVSPost2010Prop34
280
     0
102
RTVSPost2010PropOp34
 70
     1
102
RTVSPost2010Prop35
280
     0
102
RTVSPost2010PropOp35
 70
     1
102
RTVSPost2010Prop36
280
     0
102
RTVSPost2010PropOp36
 70
     1
102
RTVSPost2010Prop37
 90
       50
102
RTVSPost2010PropOp37
 70
     1
102
RTVSPost2010Prop38
140
0.0
102
RTVSPost2010PropOp38
 70
     1
102
RTVSPost2010Prop39
140
1.0
102
RTVSPost2010PropOp39
 70
     1
102
RTVSPost2010Prop40
 90
        0
102
RTVSPost2010PropOp40
 70
     1
102
RTVSPost2010Prop41ColorIndex
 90
       18
102
RTVSPost2010Prop41ColorRGB
 90
        0
102
RTVSPost2010PropOp41
 70
     1
102
RTVSPost2010Prop42
 90
       50
102
RTVSPost2010PropOp42
 70
     1
102
RTVSPost2010Prop43
 90
        3
102
RTVSPost2010PropOp43
 70
     1
102
RTVSPost2010Prop44ColorIndex
 90
        5
102
RTVSPost2010Prop44ColorRGB
 90
      255
102
RTVSPost2010PropOp44
 70
     1
102
RTVSPost2010Prop45
280
     0
102
RTVSPost2010PropOp45
 70
     1
102
RTVSPost2010Prop46
 90
       50
102
RTVSPost2010PropOp46
 70
     1
102
RTVSPost2010Prop47
 90
       50
102
RTVSPost2010PropOp47
 70
     1
102
RTVSPost2010Prop48
 90
       50
102
RTVSPost2010PropOp48
 70
     1
102
RTVSPost2010Prop49
280
     0
102
RTVSPost2010PropOp49
 70
     1
102
RTVSPost2010Prop50
 90
       50
102
RTVSPost2010PropOp50
 70
     1
102
RTVSPost2010Prop51ColorIndex
 90
      256
102
RTVSPost2010Prop51ColorRGB
 90
-16777216
102
RTVSPost2010PropOp51
 70
     0
102
RTVSPost2010Prop52
140
1.0
102
RTVSPost2010PropOp52
 70
     0
102
RTVSPost2010Prop53
 90
        2
102
RTVSPost2010PropOp53
 70
     1
102
RTVSPost2010Prop54
  1
strokes_ogs.tif
102
RTVSPost2010PropOp54
 70
     1
102
RTVSPost2010Prop55
280
     0
102
RTVSPost2010PropOp55
 70
     1
102
RTVSPost2010Prop56
140
1.0
102
RTVSPost2010PropOp56
 70
     1
102
RTVSPost2010Prop57
140
1.0
102
RTVSPost2010PropOp57
 70
     1
102
RTVSPropertyOp0
 70
     1
102
RTVSPropertyOp1
 70
     1
102
RTVSPropertyOp2
 70
     1
102
RTVSPropertyOp3
 70
     1
102
RTVSPropertyOp4
 70
     1
102
RTVSPropertyOp5
 70
     1
102
RTVSPropertyOp6
 70
     1
102
RTVSPropertyOp7
 70
     1
102
RTVSPropertyOp8
 70
     1
102
RTVSPropertyOp9
 70
     1
102
RTVSPropertyOp10
 70
     1
102
RTVSPropertyOp11
 70
     1
102
RTVSPropertyOp12
 70
     1
102
RTVSPropertyOp13
 70
     1
102
RTVSPropertyOp14
 70
     1
102
RTVSPropertyOp15
 70
     1
102
RTVSPropertyOp16
 70
     1
102
RTVSPropertyOp17
 70
     1
102
RTVSPropertyOp18
 70
     1
102
RTVSPropertyOp19
 70
     1
102
RTVSPropertyOp20
 70
     1
102
RTVSPropertyOp21
 70
     1
102
RTVSPropertyOp22
 70
     1
102
RTVSPropertyOp23
 70
     1
102
RTVSPropertyOp24
 70
     1
102
RTVSPropertyOp25
 70
     1
102
RTVSPropertyOp26
 70
     1
102
RTVSPropertyOp27
 70
     1
102
RTVSPropertyOp28
 70
     1
102
RTVSPropertyOp29
 70
     1
102
RTVSPropertyOp30
 70
     1
102
RTVSPropertyOp31
 70
     1
102
RTVSPropertyOp32
 70
     1
102
RTVSPropertyOp33
 70
     1
102
RTVSPropertyOp34
 70
     1
102
RTVSPropertyOp35
 70
     1
102
RTVSPropertyOp36
 70
     1
102
RTVSPropertyOp37
 70
     1
102
RTVSPropertyOp38
 70
     1
102
RTVSPropertyOp39
 70
     1
102
RTVSPropertyOp40
 70
     1
102
RTVSPropertyOp41
 70
     1
102
RTVSPropertyOp42
 70
     1
102
RTVSPropertyOp43
 70
     1
102
RTVSPropertyOp44
 70
     1
102
RTVSPropertyOp45
 70
     1
102
RTVSPropertyOp46
 70
     1
102
RTVSPropertyOp47
 70
     1
102
RTVSPropertyOp48
 70
     1
102
RTVSPropertyOp49
 70
     1
102
RTVSPropertyOp50
 70
     1
102
RTVSPropertyOp51
 70
     0
102
RTVSPropertyOp52
 70
     0
102
RTVSPropertyOp53
 70
     1
102
RTVSPropertyOp54
 70
     1
102
RTVSPropertyOp55
 70
     1
102
RTVSPropertyOp56
 70
     1
102
RTVSPropertyOp57
 70
     1
102
RTVSPropertyOp58
 70
     1
102
RTVSPropertyOp59
 70
     1
102
RTVSPropertyOp60
 70
     1
102
RTVSPropertyOp61
 70
     1
102
RTVSPropertyOp62
 70
     1
  0
XRECORD
  5
258A
102
{ACAD_REACTORS
330
2589
102
}
330
2589
100
AcDbXrecord
280
     1
102
RTVSPost2010Prop28
280
     0
102
RTVSPost2010PropOp28
 70
     1
102
RTVSPost2010Prop29
280
     1
102
RTVSPost2010PropOp29
 70
     1
102
RTVSPost2010Prop30
280
     1
102
RTVSPost2010PropOp30
 70
     1
102
RTVSPost2010Prop31
280
     0
102
RTVSPost2010PropOp31
 70
     1
102
RTVSPost2010Prop32
280
     0
102
RTVSPost2010PropOp32
 70
     1
102
RTVSPost2010Prop33
280
     0
102
RTVSPost2010PropOp33
 70
     1
102
RTVSPost2010Prop34
280
     0
102
RTVSPost2010PropOp34
 70
     1
102
RTVSPost2010Prop35
280
     0
102
RTVSPost2010PropOp35
 70
     1
102
RTVSPost2010Prop36
280
     0
102
RTVSPost2010PropOp36
 70
     1
102
RTVSPost2010Prop37
 90
       50
102
RTVSPost2010PropOp37
 70
     1
102
RTVSPost2010Prop38
140
0.0
102
RTVSPost2010PropOp38
 70
     1
102
RTVSPost2010Prop39
140
1.0
102
RTVSPost2010PropOp39
 70
     1
102
RTVSPost2010Prop40
 90
        0
102
RTVSPost2010PropOp40
 70
     1
102
RTVSPost2010Prop41ColorIndex
 90
       18
102
RTVSPost2010Prop41ColorRGB
 90
        0
102
RTVSPost2010PropOp41
 70
     1
102
RTVSPost2010Prop42
 90
       50
102
RTVSPost2010PropOp42
 70
     1
102
RTVSPost2010Prop43
 90
        3
102
RTVSPost2010PropOp43
 70
     1
102
RTVSPost2010Prop44ColorIndex
 90
        5
102
RTVSPost2010Prop44ColorRGB
 90
      255
102
RTVSPost2010PropOp44
 70
     1
102
RTVSPost2010Prop45
280
     0
102
RTVSPost2010PropOp45
 70
     1
102
RTVSPost2010Prop46
 90
       50
102
RTVSPost2010PropOp46
 70
     1
102
RTVSPost2010Prop47
 90
       50
102
RTVSPost2010PropOp47
 70
     1
102
RTVSPost2010Prop48
 90
       50
102
RTVSPost2010PropOp48
 70
     1
102
RTVSPost2010Prop49
280
     0
102
RTVSPost2010PropOp49
 70
     1
102
RTVSPost2010Prop50
 90
       50
102
RTVSPost2010PropOp50
 70
     1
102
RTVSPost2010Prop51ColorIndex
 90
      256
102
RTVSPost2010Prop51ColorRGB
 90
-16777216
102
RTVSPost2010PropOp51
 70
     0
102
RTVSPost2010Prop52
140
1.0
102
RTVSPost2010PropOp52
 70
     0
102
RTVSPost2010Prop53
 90
        2
102
RTVSPost2010PropOp53
 70
     1
102
RTVSPost2010Prop54
  1
strokes_ogs.tif
102
RTVSPost2010PropOp54
 70
     1
102
RTVSPost2010Prop55
280
     0
102
RTVSPost2010PropOp55
 70
     1
102
RTVSPost2010Prop56
140
1.0
102
RTVSPost2010PropOp56
 70
     1
102
RTVSPost2010Prop57
140
1.0
102
RTVSPost2010PropOp57
 70
     1
102
RTVSPropertyOp0
 70
     1
102
RTVSPropertyOp1
 70
     1
102
RTVSPropertyOp2
 70
     1
102
RTVSPropertyOp3
 70
     1
102
RTVSPropertyOp4
 70
     1
102
RTVSPropertyOp5
 70
     1
102
RTVSPropertyOp6
 70
     1
102
RTVSPropertyOp7
 70
     1
102
RTVSPropertyOp8
 70
     1
102
RTVSPropertyOp9
 70
     1
102
RTVSPropertyOp10
 70
     1
102
RTVSPropertyOp11
 70
     1
102
RTVSPropertyOp12
 70
     1
102
RTVSPropertyOp13
 70
     1
102
RTVSPropertyOp14
 70
     1
102
RTVSPropertyOp15
 70
     1
102
RTVSPropertyOp16
 70
     1
102
RTVSPropertyOp17
 70
     1
102
RTVSPropertyOp18
 70
     1
102
RTVSPropertyOp19
 70
     1
102
RTVSPropertyOp20
 70
     1
102
RTVSPropertyOp21
 70
     1
102
RTVSPropertyOp22
 70
     1
102
RTVSPropertyOp23
 70
     1
102
RTVSPropertyOp24
 70
     1
102
RTVSPropertyOp25
 70
     1
102
RTVSPropertyOp26
 70
     1
102
RTVSPropertyOp27
 70
     1
102
RTVSPropertyOp28
 70
     1
102
RTVSPropertyOp29
 70
     1
102
RTVSPropertyOp30
 70
     1
102
RTVSPropertyOp31
 70
     1
102
RTVSPropertyOp32
 70
     1
102
RTVSPropertyOp33
 70
     1
102
RTVSPropertyOp34
 70
     1
102
RTVSPropertyOp35
 70
     1
102
RTVSPropertyOp36
 70
     1
102
RTVSPropertyOp37
 70
     1
102
RTVSPropertyOp38
 70
     1
102
RTVSPropertyOp39
 70
     1
102
RTVSPropertyOp40
 70
     1
102
RTVSPropertyOp41
 70
     1
102
RTVSPropertyOp42
 70
     1
102
RTVSPropertyOp43
 70
     1
102
RTVSPropertyOp44
 70
     1
102
RTVSPropertyOp45
 70
     1
102
RTVSPropertyOp46
 70
     1
102
RTVSPropertyOp47
 70
     1
102
RTVSPropertyOp48
 70
     1
102
RTVSPropertyOp49
 70
     1
102
RTVSPropertyOp50
 70
     1
102
RTVSPropertyOp51
 70
     0
102
RTVSPropertyOp52
 70
     0
102
RTVSPropertyOp53
 70
     1
102
RTVSPropertyOp54
 70
     1
102
RTVSPropertyOp55
 70
     1
102
RTVSPropertyOp56
 70
     1
102
RTVSPropertyOp57
 70
     1
102
RTVSPropertyOp58
 70
     1
102
RTVSPropertyOp59
 70
     1
102
RTVSPropertyOp60
 70
     1
102
RTVSPropertyOp61
 70
     1
102
RTVSPropertyOp62
 70
     1
  0
XRECORD
  5
2598
102
{ACAD_REACTORS
330
2597
102
}
330
2597
100
AcDbXrecord
280
     1
102
RTVSPost2010Prop28
280
     0
102
RTVSPost2010PropOp28
 70
     1
102
RTVSPost2010Prop29
280
     1
102
RTVSPost2010PropOp29
 70
     1
102
RTVSPost2010Prop30
280
     1
102
RTVSPost2010PropOp30
 70
     1
102
RTVSPost2010Prop31
280
     0
102
RTVSPost2010PropOp31
 70
     1
102
RTVSPost2010Prop32
280
     0
102
RTVSPost2010PropOp32
 70
     1
102
RTVSPost2010Prop33
280
     0
102
RTVSPost2010PropOp33
 70
     1
102
RTVSPost2010Prop34
280
     0
102
RTVSPost2010PropOp34
 70
     1
102
RTVSPost2010Prop35
280
     0
102
RTVSPost2010PropOp35
 70
     1
102
RTVSPost2010Prop36
280
     0
102
RTVSPost2010PropOp36
 70
     1
102
RTVSPost2010Prop37
 90
       50
102
RTVSPost2010PropOp37
 70
     1
102
RTVSPost2010Prop38
140
0.0
102
RTVSPost2010PropOp38
 70
     1
102
RTVSPost2010Prop39
140
1.0
102
RTVSPost2010PropOp39
 70
     1
102
RTVSPost2010Prop40
 90
        0
102
RTVSPost2010PropOp40
 70
     1
102
RTVSPost2010Prop41ColorIndex
 90
       18
102
RTVSPost2010Prop41ColorRGB
 90
        0
102
RTVSPost2010PropOp41
 70
     1
102
RTVSPost2010Prop42
 90
       50
102
RTVSPost2010PropOp42
 70
     1
102
RTVSPost2010Prop43
 90
        3
102
RTVSPost2010PropOp43
 70
     1
102
RTVSPost2010Prop44ColorIndex
 90
        5
102
RTVSPost2010Prop44ColorRGB
 90
      255
102
RTVSPost2010PropOp44
 70
     1
102
RTVSPost2010Prop45
280
     0
102
RTVSPost2010PropOp45
 70
     1
102
RTVSPost2010Prop46
 90
       50
102
RTVSPost2010PropOp46
 70
     1
102
RTVSPost2010Prop47
 90
       50
102
RTVSPost2010PropOp47
 70
     1
102
RTVSPost2010Prop48
 90
       50
102
RTVSPost2010PropOp48
 70
     1
102
RTVSPost2010Prop49
280
     0
102
RTVSPost2010PropOp49
 70
     1
102
RTVSPost2010Prop50
 90
       50
102
RTVSPost2010PropOp50
 70
     1
102
RTVSPost2010Prop51ColorIndex
 90
      256
102
RTVSPost2010Prop51ColorRGB
 90
-16777216
102
RTVSPost2010PropOp51
 70
     0
102
RTVSPost2010Prop52
140
1.0
102
RTVSPost2010PropOp52
 70
     0
102
RTVSPost2010Prop53
 90
        2
102
RTVSPost2010PropOp53
 70
     1
102
RTVSPost2010Prop54
  1
strokes_ogs.tif
102
RTVSPost2010PropOp54
 70
     1
102
RTVSPost2010Prop55
280
     0
102
RTVSPost2010PropOp55
 70
     1
102
RTVSPost2010Prop56
140
1.0
102
RTVSPost2010PropOp56
 70
     1
102
RTVSPost2010Prop57
140
1.0
102
RTVSPost2010PropOp57
 70
     1
102
RTVSPropertyOp0
 70
     1
102
RTVSPropertyOp1
 70
     1
102
RTVSPropertyOp2
 70
     1
102
RTVSPropertyOp3
 70
     1
102
RTVSPropertyOp4
 70
     1
102
RTVSPropertyOp5
 70
     1
102
RTVSPropertyOp6
 70
     1
102
RTVSPropertyOp7
 70
     1
102
RTVSPropertyOp8
 70
     1
102
RTVSPropertyOp9
 70
     1
102
RTVSPropertyOp10
 70
     1
102
RTVSPropertyOp11
 70
     1
102
RTVSPropertyOp12
 70
     1
102
RTVSPropertyOp13
 70
     1
102
RTVSPropertyOp14
 70
     1
102
RTVSPropertyOp15
 70
     1
102
RTVSPropertyOp16
 70
     1
102
RTVSPropertyOp17
 70
     1
102
RTVSPropertyOp18
 70
     1
102
RTVSPropertyOp19
 70
     1
102
RTVSPropertyOp20
 70
     1
102
RTVSPropertyOp21
 70
     1
102
RTVSPropertyOp22
 70
     1
102
RTVSPropertyOp23
 70
     1
102
RTVSPropertyOp24
 70
     1
102
RTVSPropertyOp25
 70
     1
102
RTVSPropertyOp26
 70
     1
102
RTVSPropertyOp27
 70
     1
102
RTVSPropertyOp28
 70
     1
102
RTVSPropertyOp29
 70
     1
102
RTVSPropertyOp30
 70
     1
102
RTVSPropertyOp31
 70
     1
102
RTVSPropertyOp32
 70
     1
102
RTVSPropertyOp33
 70
     1
102
RTVSPropertyOp34
 70
     1
102
RTVSPropertyOp35
 70
     1
102
RTVSPropertyOp36
 70
     1
102
RTVSPropertyOp37
 70
     1
102
RTVSPropertyOp38
 70
     1
102
RTVSPropertyOp39
 70
     1
102
RTVSPropertyOp40
 70
     1
102
RTVSPropertyOp41
 70
     1
102
RTVSPropertyOp42
 70
     1
102
RTVSPropertyOp43
 70
     1
102
RTVSPropertyOp44
 70
     1
102
RTVSPropertyOp45
 70
     1
102
RTVSPropertyOp46
 70
     1
102
RTVSPropertyOp47
 70
     1
102
RTVSPropertyOp48
 70
     1
102
RTVSPropertyOp49
 70
     1
102
RTVSPropertyOp50
 70
     1
102
RTVSPropertyOp51
 70
     0
102
RTVSPropertyOp52
 70
     0
102
RTVSPropertyOp53
 70
     1
102
RTVSPropertyOp54
 70
     1
102
RTVSPropertyOp55
 70
     1
102
RTVSPropertyOp56
 70
     1
102
RTVSPropertyOp57
 70
     1
102
RTVSPropertyOp58
 70
     1
102
RTVSPropertyOp59
 70
     1
102
RTVSPropertyOp60
 70
     1
102
RTVSPropertyOp61
 70
     1
102
RTVSPropertyOp62
 70
     1
  0
XRECORD
  5
25A0
102
{ACAD_REACTORS
330
259F
102
}
330
259F
100
AcDbXrecord
280
     1
102
RTVSPost2010Prop28
280
     0
102
RTVSPost2010PropOp28
 70
     1
102
RTVSPost2010Prop29
280
     1
102
RTVSPost2010PropOp29
 70
     1
102
RTVSPost2010Prop30
280
     1
102
RTVSPost2010PropOp30
 70
     1
102
RTVSPost2010Prop31
280
     0
102
RTVSPost2010PropOp31
 70
     1
102
RTVSPost2010Prop32
280
     0
102
RTVSPost2010PropOp32
 70
     1
102
RTVSPost2010Prop33
280
     0
102
RTVSPost2010PropOp33
 70
     1
102
RTVSPost2010Prop34
280
     0
102
RTVSPost2010PropOp34
 70
     1
102
RTVSPost2010Prop35
280
     0
102
RTVSPost2010PropOp35
 70
     1
102
RTVSPost2010Prop36
280
     0
102
RTVSPost2010PropOp36
 70
     1
102
RTVSPost2010Prop37
 90
       50
102
RTVSPost2010PropOp37
 70
     1
102
RTVSPost2010Prop38
140
0.0
102
RTVSPost2010PropOp38
 70
     1
102
RTVSPost2010Prop39
140
1.0
102
RTVSPost2010PropOp39
 70
     1
102
RTVSPost2010Prop40
 90
        0
102
RTVSPost2010PropOp40
 70
     1
102
RTVSPost2010Prop41ColorIndex
 90
       18
102
RTVSPost2010Prop41ColorRGB
 90
        0
102
RTVSPost2010PropOp41
 70
     1
102
RTVSPost2010Prop42
 90
       50
102
RTVSPost2010PropOp42
 70
     1
102
RTVSPost2010Prop43
 90
        3
102
RTVSPost2010PropOp43
 70
     1
102
RTVSPost2010Prop44ColorIndex
 90
        5
102
RTVSPost2010Prop44ColorRGB
 90
      255
102
RTVSPost2010PropOp44
 70
     1
102
RTVSPost2010Prop45
280
     0
102
RTVSPost2010PropOp45
 70
     1
102
RTVSPost2010Prop46
 90
       50
102
RTVSPost2010PropOp46
 70
     1
102
RTVSPost2010Prop47
 90
       50
102
RTVSPost2010PropOp47
 70
     1
102
RTVSPost2010Prop48
 90
       50
102
RTVSPost2010PropOp48
 70
     1
102
RTVSPost2010Prop49
280
     0
102
RTVSPost2010PropOp49
 70
     1
102
RTVSPost2010Prop50
 90
       50
102
RTVSPost2010PropOp50
 70
     1
102
RTVSPost2010Prop51ColorIndex
 90
      256
102
RTVSPost2010Prop51ColorRGB
 90
-16777216
102
RTVSPost2010PropOp51
 70
     0
102
RTVSPost2010Prop52
140
1.0
102
RTVSPost2010PropOp52
 70
     0
102
RTVSPost2010Prop53
 90
        2
102
RTVSPost2010PropOp53
 70
     1
102
RTVSPost2010Prop54
  1
strokes_ogs.tif
102
RTVSPost2010PropOp54
 70
     1
102
RTVSPost2010Prop55
280
     0
102
RTVSPost2010PropOp55
 70
     1
102
RTVSPost2010Prop56
140
1.0
102
RTVSPost2010PropOp56
 70
     1
102
RTVSPost2010Prop57
140
1.0
102
RTVSPost2010PropOp57
 70
     1
102
RTVSPropertyOp0
 70
     1
102
RTVSPropertyOp1
 70
     1
102
RTVSPropertyOp2
 70
     1
102
RTVSPropertyOp3
 70
     1
102
RTVSPropertyOp4
 70
     1
102
RTVSPropertyOp5
 70
     1
102
RTVSPropertyOp6
 70
     1
102
RTVSPropertyOp7
 70
     1
102
RTVSPropertyOp8
 70
     1
102
RTVSPropertyOp9
 70
     1
102
RTVSPropertyOp10
 70
     1
102
RTVSPropertyOp11
 70
     1
102
RTVSPropertyOp12
 70
     1
102
RTVSPropertyOp13
 70
     1
102
RTVSPropertyOp14
 70
     1
102
RTVSPropertyOp15
 70
     1
102
RTVSPropertyOp16
 70
     1
102
RTVSPropertyOp17
 70
     1
102
RTVSPropertyOp18
 70
     1
102
RTVSPropertyOp19
 70
     1
102
RTVSPropertyOp20
 70
     1
102
RTVSPropertyOp21
 70
     1
102
RTVSPropertyOp22
 70
     1
102
RTVSPropertyOp23
 70
     1
102
RTVSPropertyOp24
 70
     1
102
RTVSPropertyOp25
 70
     1
102
RTVSPropertyOp26
 70
     1
102
RTVSPropertyOp27
 70
     1
102
RTVSPropertyOp28
 70
     1
102
RTVSPropertyOp29
 70
     1
102
RTVSPropertyOp30
 70
     1
102
RTVSPropertyOp31
 70
     1
102
RTVSPropertyOp32
 70
     1
102
RTVSPropertyOp33
 70
     1
102
RTVSPropertyOp34
 70
     1
102
RTVSPropertyOp35
 70
     1
102
RTVSPropertyOp36
 70
     1
102
RTVSPropertyOp37
 70
     1
102
RTVSPropertyOp38
 70
     1
102
RTVSPropertyOp39
 70
     1
102
RTVSPropertyOp40
 70
     1
102
RTVSPropertyOp41
 70
     1
102
RTVSPropertyOp42
 70
     1
102
RTVSPropertyOp43
 70
     1
102
RTVSPropertyOp44
 70
     1
102
RTVSPropertyOp45
 70
     1
102
RTVSPropertyOp46
 70
     1
102
RTVSPropertyOp47
 70
     1
102
RTVSPropertyOp48
 70
     1
102
RTVSPropertyOp49
 70
     1
102
RTVSPropertyOp50
 70
     1
102
RTVSPropertyOp51
 70
     0
102
RTVSPropertyOp52
 70
     0
102
RTVSPropertyOp53
 70
     1
102
RTVSPropertyOp54
 70
     1
102
RTVSPropertyOp55
 70
     1
102
RTVSPropertyOp56
 70
     1
102
RTVSPropertyOp57
 70
     1
102
RTVSPropertyOp58
 70
     1
102
RTVSPropertyOp59
 70
     1
102
RTVSPropertyOp60
 70
     1
102
RTVSPropertyOp61
 70
     1
102
RTVSPropertyOp62
 70
     1
  0
XRECORD
  5
2592
102
{ACAD_REACTORS
330
2591
102
}
330
2591
100
AcDbXrecord
280
     1
102
RTVSPost2010Prop28
280
     0
102
RTVSPost2010PropOp28
 70
     1
102
RTVSPost2010Prop29
280
     1
102
RTVSPost2010PropOp29
 70
     1
102
RTVSPost2010Prop30
280
     1
102
RTVSPost2010PropOp30
 70
     1
102
RTVSPost2010Prop31
280
     0
102
RTVSPost2010PropOp31
 70
     1
102
RTVSPost2010Prop32
280
     0
102
RTVSPost2010PropOp32
 70
     1
102
RTVSPost2010Prop33
280
     0
102
RTVSPost2010PropOp33
 70
     1
102
RTVSPost2010Prop34
280
     0
102
RTVSPost2010PropOp34
 70
     1
102
RTVSPost2010Prop35
280
     0
102
RTVSPost2010PropOp35
 70
     1
102
RTVSPost2010Prop36
280
     0
102
RTVSPost2010PropOp36
 70
     1
102
RTVSPost2010Prop37
 90
       50
102
RTVSPost2010PropOp37
 70
     1
102
RTVSPost2010Prop38
140
0.0
102
RTVSPost2010PropOp38
 70
     1
102
RTVSPost2010Prop39
140
1.0
102
RTVSPost2010PropOp39
 70
     1
102
RTVSPost2010Prop40
 90
        0
102
RTVSPost2010PropOp40
 70
     1
102
RTVSPost2010Prop41ColorIndex
 90
       18
102
RTVSPost2010Prop41ColorRGB
 90
        0
102
RTVSPost2010PropOp41
 70
     1
102
RTVSPost2010Prop42
 90
       50
102
RTVSPost2010PropOp42
 70
     1
102
RTVSPost2010Prop43
 90
        3
102
RTVSPost2010PropOp43
 70
     1
102
RTVSPost2010Prop44ColorIndex
 90
        5
102
RTVSPost2010Prop44ColorRGB
 90
      255
102
RTVSPost2010PropOp44
 70
     1
102
RTVSPost2010Prop45
280
     0
102
RTVSPost2010PropOp45
 70
     1
102
RTVSPost2010Prop46
 90
       50
102
RTVSPost2010PropOp46
 70
     1
102
RTVSPost2010Prop47
 90
       50
102
RTVSPost2010PropOp47
 70
     1
102
RTVSPost2010Prop48
 90
       50
102
RTVSPost2010PropOp48
 70
     1
102
RTVSPost2010Prop49
280
     0
102
RTVSPost2010PropOp49
 70
     1
102
RTVSPost2010Prop50
 90
       50
102
RTVSPost2010PropOp50
 70
     1
102
RTVSPost2010Prop51ColorIndex
 90
      256
102
RTVSPost2010Prop51ColorRGB
 90
-16777216
102
RTVSPost2010PropOp51
 70
     0
102
RTVSPost2010Prop52
140
1.0
102
RTVSPost2010PropOp52
 70
     0
102
RTVSPost2010Prop53
 90
        2
102
RTVSPost2010PropOp53
 70
     1
102
RTVSPost2010Prop54
  1
strokes_ogs.tif
102
RTVSPost2010PropOp54
 70
     1
102
RTVSPost2010Prop55
280
     0
102
RTVSPost2010PropOp55
 70
     1
102
RTVSPost2010Prop56
140
1.0
102
RTVSPost2010PropOp56
 70
     1
102
RTVSPost2010Prop57
140
1.0
102
RTVSPost2010PropOp57
 70
     1
102
RTVSPropertyOp0
 70
     1
102
RTVSPropertyOp1
 70
     1
102
RTVSPropertyOp2
 70
     1
102
RTVSPropertyOp3
 70
     1
102
RTVSPropertyOp4
 70
     1
102
RTVSPropertyOp5
 70
     1
102
RTVSPropertyOp6
 70
     1
102
RTVSPropertyOp7
 70
     1
102
RTVSPropertyOp8
 70
     1
102
RTVSPropertyOp9
 70
     1
102
RTVSPropertyOp10
 70
     1
102
RTVSPropertyOp11
 70
     1
102
RTVSPropertyOp12
 70
     1
102
RTVSPropertyOp13
 70
     1
102
RTVSPropertyOp14
 70
     1
102
RTVSPropertyOp15
 70
     1
102
RTVSPropertyOp16
 70
     1
102
RTVSPropertyOp17
 70
     1
102
RTVSPropertyOp18
 70
     1
102
RTVSPropertyOp19
 70
     1
102
RTVSPropertyOp20
 70
     1
102
RTVSPropertyOp21
 70
     1
102
RTVSPropertyOp22
 70
     1
102
RTVSPropertyOp23
 70
     1
102
RTVSPropertyOp24
 70
     1
102
RTVSPropertyOp25
 70
     1
102
RTVSPropertyOp26
 70
     1
102
RTVSPropertyOp27
 70
     1
102
RTVSPropertyOp28
 70
     1
102
RTVSPropertyOp29
 70
     1
102
RTVSPropertyOp30
 70
     1
102
RTVSPropertyOp31
 70
     1
102
RTVSPropertyOp32
 70
     1
102
RTVSPropertyOp33
 70
     1
102
RTVSPropertyOp34
 70
     1
102
RTVSPropertyOp35
 70
     1
102
RTVSPropertyOp36
 70
     1
102
RTVSPropertyOp37
 70
     1
102
RTVSPropertyOp38
 70
     1
102
RTVSPropertyOp39
 70
     1
102
RTVSPropertyOp40
 70
     1
102
RTVSPropertyOp41
 70
     1
102
RTVSPropertyOp42
 70
     1
102
RTVSPropertyOp43
 70
     1
102
RTVSPropertyOp44
 70
     1
102
RTVSPropertyOp45
 70
     1
102
RTVSPropertyOp46
 70
     1
102
RTVSPropertyOp47
 70
     1
102
RTVSPropertyOp48
 70
     1
102
RTVSPropertyOp49
 70
     1
102
RTVSPropertyOp50
 70
     1
102
RTVSPropertyOp51
 70
     0
102
RTVSPropertyOp52
 70
     0
102
RTVSPropertyOp53
 70
     1
102
RTVSPropertyOp54
 70
     1
102
RTVSPropertyOp55
 70
     1
102
RTVSPropertyOp56
 70
     1
102
RTVSPropertyOp57
 70
     1
102
RTVSPropertyOp58
 70
     1
102
RTVSPropertyOp59
 70
     1
102
RTVSPropertyOp60
 70
     1
102
RTVSPropertyOp61
 70
     1
102
RTVSPropertyOp62
 70
     1
  0
XRECORD
  5
2596
102
{ACAD_REACTORS
330
2595
102
}
330
2595
100
AcDbXrecord
280
     1
102
RTVSPost2010Prop28
280
     0
102
RTVSPost2010PropOp28
 70
     1
102
RTVSPost2010Prop29
280
     1
102
RTVSPost2010PropOp29
 70
     1
102
RTVSPost2010Prop30
280
     1
102
RTVSPost2010PropOp30
 70
     1
102
RTVSPost2010Prop31
280
     0
102
RTVSPost2010PropOp31
 70
     1
102
RTVSPost2010Prop32
280
     0
102
RTVSPost2010PropOp32
 70
     1
102
RTVSPost2010Prop33
280
     0
102
RTVSPost2010PropOp33
 70
     1
102
RTVSPost2010Prop34
280
     0
102
RTVSPost2010PropOp34
 70
     1
102
RTVSPost2010Prop35
280
     0
102
RTVSPost2010PropOp35
 70
     1
102
RTVSPost2010Prop36
280
     0
102
RTVSPost2010PropOp36
 70
     1
102
RTVSPost2010Prop37
 90
       50
102
RTVSPost2010PropOp37
 70
     1
102
RTVSPost2010Prop38
140
0.0
102
RTVSPost2010PropOp38
 70
     1
102
RTVSPost2010Prop39
140
1.0
102
RTVSPost2010PropOp39
 70
     1
102
RTVSPost2010Prop40
 90
        0
102
RTVSPost2010PropOp40
 70
     1
102
RTVSPost2010Prop41ColorIndex
 90
       18
102
RTVSPost2010Prop41ColorRGB
 90
        0
102
RTVSPost2010PropOp41
 70
     1
102
RTVSPost2010Prop42
 90
       50
102
RTVSPost2010PropOp42
 70
     1
102
RTVSPost2010Prop43
 90
        3
102
RTVSPost2010PropOp43
 70
     1
102
RTVSPost2010Prop44ColorIndex
 90
        5
102
RTVSPost2010Prop44ColorRGB
 90
      255
102
RTVSPost2010PropOp44
 70
     1
102
RTVSPost2010Prop45
280
     0
102
RTVSPost2010PropOp45
 70
     1
102
RTVSPost2010Prop46
 90
       50
102
RTVSPost2010PropOp46
 70
     1
102
RTVSPost2010Prop47
 90
       50
102
RTVSPost2010PropOp47
 70
     1
102
RTVSPost2010Prop48
 90
       50
102
RTVSPost2010PropOp48
 70
     1
102
RTVSPost2010Prop49
280
     0
102
RTVSPost2010PropOp49
 70
     1
102
RTVSPost2010Prop50
 90
       50
102
RTVSPost2010PropOp50
 70
     1
102
RTVSPost2010Prop51ColorIndex
 90
      256
102
RTVSPost2010Prop51ColorRGB
 90
-16777216
102
RTVSPost2010PropOp51
 70
     0
102
RTVSPost2010Prop52
140
1.0
102
RTVSPost2010PropOp52
 70
     0
102
RTVSPost2010Prop53
 90
        2
102
RTVSPost2010PropOp53
 70
     1
102
RTVSPost2010Prop54
  1
strokes_ogs.tif
102
RTVSPost2010PropOp54
 70
     1
102
RTVSPost2010Prop55
280
     0
102
RTVSPost2010PropOp55
 70
     1
102
RTVSPost2010Prop56
140
1.0
102
RTVSPost2010PropOp56
 70
     1
102
RTVSPost2010Prop57
140
1.0
102
RTVSPost2010PropOp57
 70
     1
102
RTVSPropertyOp0
 70
     1
102
RTVSPropertyOp1
 70
     1
102
RTVSPropertyOp2
 70
     1
102
RTVSPropertyOp3
 70
     1
102
RTVSPropertyOp4
 70
     1
102
RTVSPropertyOp5
 70
     1
102
RTVSPropertyOp6
 70
     1
102
RTVSPropertyOp7
 70
     1
102
RTVSPropertyOp8
 70
     1
102
RTVSPropertyOp9
 70
     1
102
RTVSPropertyOp10
 70
     1
102
RTVSPropertyOp11
 70
     1
102
RTVSPropertyOp12
 70
     1
102
RTVSPropertyOp13
 70
     1
102
RTVSPropertyOp14
 70
     1
102
RTVSPropertyOp15
 70
     1
102
RTVSPropertyOp16
 70
     1
102
RTVSPropertyOp17
 70
     1
102
RTVSPropertyOp18
 70
     1
102
RTVSPropertyOp19
 70
     1
102
RTVSPropertyOp20
 70
     1
102
RTVSPropertyOp21
 70
     1
102
RTVSPropertyOp22
 70
     1
102
RTVSPropertyOp23
 70
     1
102
RTVSPropertyOp24
 70
     1
102
RTVSPropertyOp25
 70
     1
102
RTVSPropertyOp26
 70
     1
102
RTVSPropertyOp27
 70
     1
102
RTVSPropertyOp28
 70
     1
102
RTVSPropertyOp29
 70
     1
102
RTVSPropertyOp30
 70
     1
102
RTVSPropertyOp31
 70
     1
102
RTVSPropertyOp32
 70
     1
102
RTVSPropertyOp33
 70
     1
102
RTVSPropertyOp34
 70
     1
102
RTVSPropertyOp35
 70
     1
102
RTVSPropertyOp36
 70
     1
102
RTVSPropertyOp37
 70
     1
102
RTVSPropertyOp38
 70
     1
102
RTVSPropertyOp39
 70
     1
102
RTVSPropertyOp40
 70
     1
102
RTVSPropertyOp41
 70
     1
102
RTVSPropertyOp42
 70
     1
102
RTVSPropertyOp43
 70
     1
102
RTVSPropertyOp44
 70
     1
102
RTVSPropertyOp45
 70
     1
102
RTVSPropertyOp46
 70
     1
102
RTVSPropertyOp47
 70
     1
102
RTVSPropertyOp48
 70
     1
102
RTVSPropertyOp49
 70
     1
102
RTVSPropertyOp50
 70
     1
102
RTVSPropertyOp51
 70
     0
102
RTVSPropertyOp52
 70
     0
102
RTVSPropertyOp53
 70
     1
102
RTVSPropertyOp54
 70
     1
102
RTVSPropertyOp55
 70
     1
102
RTVSPropertyOp56
 70
     1
102
RTVSPropertyOp57
 70
     1
102
RTVSPropertyOp58
 70
     1
102
RTVSPropertyOp59
 70
     1
102
RTVSPropertyOp60
 70
     1
102
RTVSPropertyOp61
 70
     1
102
RTVSPropertyOp62
 70
     1
  0
XRECORD
  5
25B4
102
{ACAD_REACTORS
330
25B3
102
}
330
25B3
100
AcDbXrecord
280
     1
102
RTVSPost2010Prop28
280
     0
102
RTVSPost2010PropOp28
 70
     0
102
RTVSPost2010Prop29
280
     1
102
RTVSPost2010PropOp29
 70
     0
102
RTVSPost2010Prop30
280
     1
102
RTVSPost2010PropOp30
 70
     0
102
RTVSPost2010Prop31
280
     0
102
RTVSPost2010PropOp31
 70
     0
102
RTVSPost2010Prop32
280
     0
102
RTVSPost2010PropOp32
 70
     0
102
RTVSPost2010Prop33
280
     0
102
RTVSPost2010PropOp33
 70
     0
102
RTVSPost2010Prop34
280
     0
102
RTVSPost2010PropOp34
 70
     0
102
RTVSPost2010Prop35
280
     0
102
RTVSPost2010PropOp35
 70
     0
102
RTVSPost2010Prop36
280
     0
102
RTVSPost2010PropOp36
 70
     0
102
RTVSPost2010Prop37
 90
       50
102
RTVSPost2010PropOp37
 70
     0
102
RTVSPost2010Prop38
140
0.0
102
RTVSPost2010PropOp38
 70
     0
102
RTVSPost2010Prop39
140
1.0
102
RTVSPost2010PropOp39
 70
     0
102
RTVSPost2010Prop40
 90
        0
102
RTVSPost2010PropOp40
 70
     0
102
RTVSPost2010Prop41ColorIndex
 90
       18
102
RTVSPost2010Prop41ColorRGB
 90
        0
102
RTVSPost2010PropOp41
 70
     0
102
RTVSPost2010Prop42
 90
       50
102
RTVSPost2010PropOp42
 70
     0
102
RTVSPost2010Prop43
 90
        3
102
RTVSPost2010PropOp43
 70
     0
102
RTVSPost2010Prop44ColorIndex
 90
        5
102
RTVSPost2010Prop44ColorRGB
 90
      255
102
RTVSPost2010PropOp44
 70
     0
102
RTVSPost2010Prop45
280
     0
102
RTVSPost2010PropOp45
 70
     0
102
RTVSPost2010Prop46
 90
       50
102
RTVSPost2010PropOp46
 70
     0
102
RTVSPost2010Prop47
 90
       50
102
RTVSPost2010PropOp47
 70
     0
102
RTVSPost2010Prop48
 90
       50
102
RTVSPost2010PropOp48
 70
     0
102
RTVSPost2010Prop49
280
     0
102
RTVSPost2010PropOp49
 70
     0
102
RTVSPost2010Prop50
 90
       50
102
RTVSPost2010PropOp50
 70
     0
102
RTVSPost2010Prop51ColorIndex
 90
      256
102
RTVSPost2010Prop51ColorRGB
 90
-16777216
102
RTVSPost2010PropOp51
 70
     0
102
RTVSPost2010Prop52
140
1.0
102
RTVSPost2010PropOp52
 70
     0
102
RTVSPost2010Prop53
 90
        2
102
RTVSPost2010PropOp53
 70
     0
102
RTVSPost2010Prop54
  1
strokes_ogs.tif
102
RTVSPost2010PropOp54
 70
     0
102
RTVSPost2010Prop55
280
     0
102
RTVSPost2010PropOp55
 70
     0
102
RTVSPost2010Prop56
140
1.0
102
RTVSPost2010PropOp56
 70
     0
102
RTVSPost2010Prop57
140
1.0
102
RTVSPost2010PropOp57
 70
     0
102
RTVSPropertyOp0
 70
     0
102
RTVSPropertyOp1
 70
     0
102
RTVSPropertyOp2
 70
     0
102
RTVSPropertyOp3
 70
     0
102
RTVSPropertyOp4
 70
     0
102
RTVSPropertyOp5
 70
     0
102
RTVSPropertyOp6
 70
     0
102
RTVSPropertyOp7
 70
     0
102
RTVSPropertyOp8
 70
     0
102
RTVSPropertyOp9
 70
     0
102
RTVSPropertyOp10
 70
     0
102
RTVSPropertyOp11
 70
     0
102
RTVSPropertyOp12
 70
     0
102
RTVSPropertyOp13
 70
     0
102
RTVSPropertyOp14
 70
     2
102
RTVSPropertyOp15
 70
     0
102
RTVSPropertyOp16
 70
     0
102
RTVSPropertyOp17
 70
     0
102
RTVSPropertyOp18
 70
     0
102
RTVSPropertyOp19
 70
     0
102
RTVSPropertyOp20
 70
     0
102
RTVSPropertyOp21
 70
     0
102
RTVSPropertyOp22
 70
     0
102
RTVSPropertyOp23
 70
     0
102
RTVSPropertyOp24
 70
     0
102
RTVSPropertyOp25
 70
     0
102
RTVSPropertyOp26
 70
     0
102
RTVSPropertyOp27
 70
     0
102
RTVSPropertyOp28
 70
     0
102
RTVSPropertyOp29
 70
     0
102
RTVSPropertyOp30
 70
     0
102
RTVSPropertyOp31
 70
     0
102
RTVSPropertyOp32
 70
     0
102
RTVSPropertyOp33
 70
     0
102
RTVSPropertyOp34
 70
     0
102
RTVSPropertyOp35
 70
     0
102
RTVSPropertyOp36
 70
     0
102
RTVSPropertyOp37
 70
     0
102
RTVSPropertyOp38
 70
     0
102
RTVSPropertyOp39
 70
     0
102
RTVSPropertyOp40
 70
     0
102
RTVSPropertyOp41
 70
     0
102
RTVSPropertyOp42
 70
     0
102
RTVSPropertyOp43
 70
     0
102
RTVSPropertyOp44
 70
     0
102
RTVSPropertyOp45
 70
     0
102
RTVSPropertyOp46
 70
     0
102
RTVSPropertyOp47
 70
     0
102
RTVSPropertyOp48
 70
     0
102
RTVSPropertyOp49
 70
     0
102
RTVSPropertyOp50
 70
     0
102
RTVSPropertyOp51
 70
     0
102
RTVSPropertyOp52
 70
     0
102
RTVSPropertyOp53
 70
     0
102
RTVSPropertyOp54
 70
     0
102
RTVSPropertyOp55
 70
     0
102
RTVSPropertyOp56
 70
     0
102
RTVSPropertyOp57
 70
     0
102
RTVSPropertyOp58
 70
     0
102
RTVSPropertyOp59
 70
     0
102
RTVSPropertyOp60
 70
     0
102
RTVSPropertyOp61
 70
     0
102
RTVSPropertyOp62
 70
     0
  0
XRECORD
  5
259E
102
{ACAD_REACTORS
330
259D
102
}
330
259D
100
AcDbXrecord
280
     1
102
RTVSPost2010Prop28
280
     0
102
RTVSPost2010PropOp28
 70
     1
102
RTVSPost2010Prop29
280
     1
102
RTVSPost2010PropOp29
 70
     1
102
RTVSPost2010Prop30
280
     1
102
RTVSPost2010PropOp30
 70
     1
102
RTVSPost2010Prop31
280
     0
102
RTVSPost2010PropOp31
 70
     1
102
RTVSPost2010Prop32
280
     0
102
RTVSPost2010PropOp32
 70
     1
102
RTVSPost2010Prop33
280
     0
102
RTVSPost2010PropOp33
 70
     1
102
RTVSPost2010Prop34
280
     0
102
RTVSPost2010PropOp34
 70
     1
102
RTVSPost2010Prop35
280
     0
102
RTVSPost2010PropOp35
 70
     1
102
RTVSPost2010Prop36
280
     0
102
RTVSPost2010PropOp36
 70
     1
102
RTVSPost2010Prop37
 90
       50
102
RTVSPost2010PropOp37
 70
     1
102
RTVSPost2010Prop38
140
0.0
102
RTVSPost2010PropOp38
 70
     1
102
RTVSPost2010Prop39
140
1.0
102
RTVSPost2010PropOp39
 70
     1
102
RTVSPost2010Prop40
 90
        0
102
RTVSPost2010PropOp40
 70
     1
102
RTVSPost2010Prop41ColorIndex
 90
       18
102
RTVSPost2010Prop41ColorRGB
 90
        0
102
RTVSPost2010PropOp41
 70
     1
102
RTVSPost2010Prop42
 90
       50
102
RTVSPost2010PropOp42
 70
     1
102
RTVSPost2010Prop43
 90
        3
102
RTVSPost2010PropOp43
 70
     1
102
RTVSPost2010Prop44ColorIndex
 90
        5
102
RTVSPost2010Prop44ColorRGB
 90
      255
102
RTVSPost2010PropOp44
 70
     1
102
RTVSPost2010Prop45
280
     0
102
RTVSPost2010PropOp45
 70
     1
102
RTVSPost2010Prop46
 90
       50
102
RTVSPost2010PropOp46
 70
     1
102
RTVSPost2010Prop47
 90
       50
102
RTVSPost2010PropOp47
 70
     1
102
RTVSPost2010Prop48
 90
       50
102
RTVSPost2010PropOp48
 70
     1
102
RTVSPost2010Prop49
280
     0
102
RTVSPost2010PropOp49
 70
     1
102
RTVSPost2010Prop50
 90
       50
102
RTVSPost2010PropOp50
 70
     1
102
RTVSPost2010Prop51ColorIndex
 90
      256
102
RTVSPost2010Prop51ColorRGB
 90
-16777216
102
RTVSPost2010PropOp51
 70
     0
102
RTVSPost2010Prop52
140
1.0
102
RTVSPost2010PropOp52
 70
     0
102
RTVSPost2010Prop53
 90
        2
102
RTVSPost2010PropOp53
 70
     1
102
RTVSPost2010Prop54
  1
strokes_ogs.tif
102
RTVSPost2010PropOp54
 70
     1
102
RTVSPost2010Prop55
280
     0
102
RTVSPost2010PropOp55
 70
     1
102
RTVSPost2010Prop56
140
1.0
102
RTVSPost2010PropOp56
 70
     1
102
RTVSPost2010Prop57
140
1.0
102
RTVSPost2010PropOp57
 70
     1
102
RTVSPropertyOp0
 70
     1
102
RTVSPropertyOp1
 70
     1
102
RTVSPropertyOp2
 70
     1
102
RTVSPropertyOp3
 70
     1
102
RTVSPropertyOp4
 70
     1
102
RTVSPropertyOp5
 70
     1
102
RTVSPropertyOp6
 70
     1
102
RTVSPropertyOp7
 70
     1
102
RTVSPropertyOp8
 70
     1
102
RTVSPropertyOp9
 70
     1
102
RTVSPropertyOp10
 70
     1
102
RTVSPropertyOp11
 70
     1
102
RTVSPropertyOp12
 70
     1
102
RTVSPropertyOp13
 70
     1
102
RTVSPropertyOp14
 70
     1
102
RTVSPropertyOp15
 70
     1
102
RTVSPropertyOp16
 70
     1
102
RTVSPropertyOp17
 70
     1
102
RTVSPropertyOp18
 70
     1
102
RTVSPropertyOp19
 70
     1
102
RTVSPropertyOp20
 70
     1
102
RTVSPropertyOp21
 70
     1
102
RTVSPropertyOp22
 70
     1
102
RTVSPropertyOp23
 70
     1
102
RTVSPropertyOp24
 70
     1
102
RTVSPropertyOp25
 70
     1
102
RTVSPropertyOp26
 70
     1
102
RTVSPropertyOp27
 70
     1
102
RTVSPropertyOp28
 70
     1
102
RTVSPropertyOp29
 70
     1
102
RTVSPropertyOp30
 70
     1
102
RTVSPropertyOp31
 70
     1
102
RTVSPropertyOp32
 70
     1
102
RTVSPropertyOp33
 70
     1
102
RTVSPropertyOp34
 70
     1
102
RTVSPropertyOp35
 70
     1
102
RTVSPropertyOp36
 70
     1
102
RTVSPropertyOp37
 70
     1
102
RTVSPropertyOp38
 70
     1
102
RTVSPropertyOp39
 70
     1
102
RTVSPropertyOp40
 70
     1
102
RTVSPropertyOp41
 70
     1
102
RTVSPropertyOp42
 70
     1
102
RTVSPropertyOp43
 70
     1
102
RTVSPropertyOp44
 70
     1
102
RTVSPropertyOp45
 70
     1
102
RTVSPropertyOp46
 70
     1
102
RTVSPropertyOp47
 70
     1
102
RTVSPropertyOp48
 70
     1
102
RTVSPropertyOp49
 70
     1
102
RTVSPropertyOp50
 70
     1
102
RTVSPropertyOp51
 70
     0
102
RTVSPropertyOp52
 70
     0
102
RTVSPropertyOp53
 70
     1
102
RTVSPropertyOp54
 70
     1
102
RTVSPropertyOp55
 70
     1
102
RTVSPropertyOp56
 70
     1
102
RTVSPropertyOp57
 70
     1
102
RTVSPropertyOp58
 70
     1
102
RTVSPropertyOp59
 70
     1
102
RTVSPropertyOp60
 70
     1
102
RTVSPropertyOp61
 70
     1
102
RTVSPropertyOp62
 70
     1
  0
XRECORD
  5
2582
102
{ACAD_REACTORS
330
2581
102
}
330
2581
100
AcDbXrecord
280
     1
102
RTVSPost2010Prop28
280
     0
102
RTVSPost2010PropOp28
 70
     1
102
RTVSPost2010Prop29
280
     1
102
RTVSPost2010PropOp29
 70
     1
102
RTVSPost2010Prop30
280
     1
102
RTVSPost2010PropOp30
 70
     1
102
RTVSPost2010Prop31
280
     0
102
RTVSPost2010PropOp31
 70
     1
102
RTVSPost2010Prop32
280
     0
102
RTVSPost2010PropOp32
 70
     1
102
RTVSPost2010Prop33
280
     0
102
RTVSPost2010PropOp33
 70
     1
102
RTVSPost2010Prop34
280
     0
102
RTVSPost2010PropOp34
 70
     1
102
RTVSPost2010Prop35
280
     0
102
RTVSPost2010PropOp35
 70
     1
102
RTVSPost2010Prop36
280
     0
102
RTVSPost2010PropOp36
 70
     1
102
RTVSPost2010Prop37
 90
       50
102
RTVSPost2010PropOp37
 70
     1
102
RTVSPost2010Prop38
140
0.0
102
RTVSPost2010PropOp38
 70
     1
102
RTVSPost2010Prop39
140
1.0
102
RTVSPost2010PropOp39
 70
     1
102
RTVSPost2010Prop40
 90
        0
102
RTVSPost2010PropOp40
 70
     1
102
RTVSPost2010Prop41ColorIndex
 90
       18
102
RTVSPost2010Prop41ColorRGB
 90
        0
102
RTVSPost2010PropOp41
 70
     1
102
RTVSPost2010Prop42
 90
       50
102
RTVSPost2010PropOp42
 70
     1
102
RTVSPost2010Prop43
 90
        3
102
RTVSPost2010PropOp43
 70
     1
102
RTVSPost2010Prop44ColorIndex
 90
        5
102
RTVSPost2010Prop44ColorRGB
 90
      255
102
RTVSPost2010PropOp44
 70
     1
102
RTVSPost2010Prop45
280
     0
102
RTVSPost2010PropOp45
 70
     1
102
RTVSPost2010Prop46
 90
       50
102
RTVSPost2010PropOp46
 70
     1
102
RTVSPost2010Prop47
 90
       50
102
RTVSPost2010PropOp47
 70
     1
102
RTVSPost2010Prop48
 90
       50
102
RTVSPost2010PropOp48
 70
     1
102
RTVSPost2010Prop49
280
     0
102
RTVSPost2010PropOp49
 70
     1
102
RTVSPost2010Prop50
 90
       50
102
RTVSPost2010PropOp50
 70
     1
102
RTVSPost2010Prop51ColorIndex
 90
      256
102
RTVSPost2010Prop51ColorRGB
 90
-16777216
102
RTVSPost2010PropOp51
 70
     0
102
RTVSPost2010Prop52
140
1.0
102
RTVSPost2010PropOp52
 70
     0
102
RTVSPost2010Prop53
 90
        2
102
RTVSPost2010PropOp53
 70
     1
102
RTVSPost2010Prop54
  1
strokes_ogs.tif
102
RTVSPost2010PropOp54
 70
     1
102
RTVSPost2010Prop55
280
     0
102
RTVSPost2010PropOp55
 70
     1
102
RTVSPost2010Prop56
140
1.0
102
RTVSPost2010PropOp56
 70
     1
102
RTVSPost2010Prop57
140
1.0
102
RTVSPost2010PropOp57
 70
     1
102
RTVSPropertyOp0
 70
     1
102
RTVSPropertyOp1
 70
     1
102
RTVSPropertyOp2
 70
     1
102
RTVSPropertyOp3
 70
     1
102
RTVSPropertyOp4
 70
     1
102
RTVSPropertyOp5
 70
     1
102
RTVSPropertyOp6
 70
     1
102
RTVSPropertyOp7
 70
     1
102
RTVSPropertyOp8
 70
     1
102
RTVSPropertyOp9
 70
     1
102
RTVSPropertyOp10
 70
     1
102
RTVSPropertyOp11
 70
     1
102
RTVSPropertyOp12
 70
     1
102
RTVSPropertyOp13
 70
     1
102
RTVSPropertyOp14
 70
     1
102
RTVSPropertyOp15
 70
     1
102
RTVSPropertyOp16
 70
     1
102
RTVSPropertyOp17
 70
     1
102
RTVSPropertyOp18
 70
     1
102
RTVSPropertyOp19
 70
     1
102
RTVSPropertyOp20
 70
     1
102
RTVSPropertyOp21
 70
     1
102
RTVSPropertyOp22
 70
     1
102
RTVSPropertyOp23
 70
     1
102
RTVSPropertyOp24
 70
     1
102
RTVSPropertyOp25
 70
     1
102
RTVSPropertyOp26
 70
     1
102
RTVSPropertyOp27
 70
     1
102
RTVSPropertyOp28
 70
     1
102
RTVSPropertyOp29
 70
     1
102
RTVSPropertyOp30
 70
     1
102
RTVSPropertyOp31
 70
     1
102
RTVSPropertyOp32
 70
     1
102
RTVSPropertyOp33
 70
     1
102
RTVSPropertyOp34
 70
     1
102
RTVSPropertyOp35
 70
     1
102
RTVSPropertyOp36
 70
     1
102
RTVSPropertyOp37
 70
     1
102
RTVSPropertyOp38
 70
     1
102
RTVSPropertyOp39
 70
     1
102
RTVSPropertyOp40
 70
     1
102
RTVSPropertyOp41
 70
     1
102
RTVSPropertyOp42
 70
     1
102
RTVSPropertyOp43
 70
     1
102
RTVSPropertyOp44
 70
     1
102
RTVSPropertyOp45
 70
     1
102
RTVSPropertyOp46
 70
     1
102
RTVSPropertyOp47
 70
     1
102
RTVSPropertyOp48
 70
     1
102
RTVSPropertyOp49
 70
     1
102
RTVSPropertyOp50
 70
     1
102
RTVSPropertyOp51
 70
     0
102
RTVSPropertyOp52
 70
     0
102
RTVSPropertyOp53
 70
     1
102
RTVSPropertyOp54
 70
     1
102
RTVSPropertyOp55
 70
     1
102
RTVSPropertyOp56
 70
     1
102
RTVSPropertyOp57
 70
     1
102
RTVSPropertyOp58
 70
     1
102
RTVSPropertyOp59
 70
     1
102
RTVSPropertyOp60
 70
     1
102
RTVSPropertyOp61
 70
     1
102
RTVSPropertyOp62
 70
     1
  0
XRECORD
  5
2584
102
{ACAD_REACTORS
330
2583
102
}
330
2583
100
AcDbXrecord
280
     1
102
RTVSPost2010Prop28
280
     0
102
RTVSPost2010PropOp28
 70
     1
102
RTVSPost2010Prop29
280
     1
102
RTVSPost2010PropOp29
 70
     1
102
RTVSPost2010Prop30
280
     1
102
RTVSPost2010PropOp30
 70
     1
102
RTVSPost2010Prop31
280
     0
102
RTVSPost2010PropOp31
 70
     1
102
RTVSPost2010Prop32
280
     0
102
RTVSPost2010PropOp32
 70
     1
102
RTVSPost2010Prop33
280
     0
102
RTVSPost2010PropOp33
 70
     1
102
RTVSPost2010Prop34
280
     0
102
RTVSPost2010PropOp34
 70
     1
102
RTVSPost2010Prop35
280
     0
102
RTVSPost2010PropOp35
 70
     1
102
RTVSPost2010Prop36
280
     0
102
RTVSPost2010PropOp36
 70
     1
102
RTVSPost2010Prop37
 90
       50
102
RTVSPost2010PropOp37
 70
     1
102
RTVSPost2010Prop38
140
0.0
102
RTVSPost2010PropOp38
 70
     1
102
RTVSPost2010Prop39
140
1.0
102
RTVSPost2010PropOp39
 70
     1
102
RTVSPost2010Prop40
 90
        0
102
RTVSPost2010PropOp40
 70
     1
102
RTVSPost2010Prop41ColorIndex
 90
       18
102
RTVSPost2010Prop41ColorRGB
 90
        0
102
RTVSPost2010PropOp41
 70
     1
102
RTVSPost2010Prop42
 90
       50
102
RTVSPost2010PropOp42
 70
     1
102
RTVSPost2010Prop43
 90
        3
102
RTVSPost2010PropOp43
 70
     1
102
RTVSPost2010Prop44ColorIndex
 90
        5
102
RTVSPost2010Prop44ColorRGB
 90
      255
102
RTVSPost2010PropOp44
 70
     1
102
RTVSPost2010Prop45
280
     0
102
RTVSPost2010PropOp45
 70
     1
102
RTVSPost2010Prop46
 90
       50
102
RTVSPost2010PropOp46
 70
     1
102
RTVSPost2010Prop47
 90
       50
102
RTVSPost2010PropOp47
 70
     1
102
RTVSPost2010Prop48
 90
       50
102
RTVSPost2010PropOp48
 70
     1
102
RTVSPost2010Prop49
280
     0
102
RTVSPost2010PropOp49
 70
     1
102
RTVSPost2010Prop50
 90
       50
102
RTVSPost2010PropOp50
 70
     1
102
RTVSPost2010Prop51ColorIndex
 90
      256
102
RTVSPost2010Prop51ColorRGB
 90
-16777216
102
RTVSPost2010PropOp51
 70
     0
102
RTVSPost2010Prop52
140
1.0
102
RTVSPost2010PropOp52
 70
     0
102
RTVSPost2010Prop53
 90
        2
102
RTVSPost2010PropOp53
 70
     1
102
RTVSPost2010Prop54
  1
strokes_ogs.tif
102
RTVSPost2010PropOp54
 70
     1
102
RTVSPost2010Prop55
280
     0
102
RTVSPost2010PropOp55
 70
     1
102
RTVSPost2010Prop56
140
1.0
102
RTVSPost2010PropOp56
 70
     1
102
RTVSPost2010Prop57
140
1.0
102
RTVSPost2010PropOp57
 70
     1
102
RTVSPropertyOp0
 70
     1
102
RTVSPropertyOp1
 70
     1
102
RTVSPropertyOp2
 70
     1
102
RTVSPropertyOp3
 70
     1
102
RTVSPropertyOp4
 70
     1
102
RTVSPropertyOp5
 70
     1
102
RTVSPropertyOp6
 70
     1
102
RTVSPropertyOp7
 70
     1
102
RTVSPropertyOp8
 70
     1
102
RTVSPropertyOp9
 70
     1
102
RTVSPropertyOp10
 70
     1
102
RTVSPropertyOp11
 70
     1
102
RTVSPropertyOp12
 70
     1
102
RTVSPropertyOp13
 70
     1
102
RTVSPropertyOp14
 70
     1
102
RTVSPropertyOp15
 70
     1
102
RTVSPropertyOp16
 70
     1
102
RTVSPropertyOp17
 70
     1
102
RTVSPropertyOp18
 70
     1
102
RTVSPropertyOp19
 70
     1
102
RTVSPropertyOp20
 70
     1
102
RTVSPropertyOp21
 70
     1
102
RTVSPropertyOp22
 70
     1
102
RTVSPropertyOp23
 70
     1
102
RTVSPropertyOp24
 70
     1
102
RTVSPropertyOp25
 70
     1
102
RTVSPropertyOp26
 70
     1
102
RTVSPropertyOp27
 70
     1
102
RTVSPropertyOp28
 70
     1
102
RTVSPropertyOp29
 70
     1
102
RTVSPropertyOp30
 70
     1
102
RTVSPropertyOp31
 70
     1
102
RTVSPropertyOp32
 70
     1
102
RTVSPropertyOp33
 70
     1
102
RTVSPropertyOp34
 70
     1
102
RTVSPropertyOp35
 70
     1
102
RTVSPropertyOp36
 70
     1
102
RTVSPropertyOp37
 70
     1
102
RTVSPropertyOp38
 70
     1
102
RTVSPropertyOp39
 70
     1
102
RTVSPropertyOp40
 70
     1
102
RTVSPropertyOp41
 70
     1
102
RTVSPropertyOp42
 70
     1
102
RTVSPropertyOp43
 70
     1
102
RTVSPropertyOp44
 70
     1
102
RTVSPropertyOp45
 70
     1
102
RTVSPropertyOp46
 70
     1
102
RTVSPropertyOp47
 70
     1
102
RTVSPropertyOp48
 70
     1
102
RTVSPropertyOp49
 70
     1
102
RTVSPropertyOp50
 70
     1
102
RTVSPropertyOp51
 70
     0
102
RTVSPropertyOp52
 70
     0
102
RTVSPropertyOp53
 70
     1
102
RTVSPropertyOp54
 70
     1
102
RTVSPropertyOp55
 70
     1
102
RTVSPropertyOp56
 70
     1
102
RTVSPropertyOp57
 70
     1
102
RTVSPropertyOp58
 70
     1
102
RTVSPropertyOp59
 70
     1
102
RTVSPropertyOp60
 70
     1
102
RTVSPropertyOp61
 70
     1
102
RTVSPropertyOp62
 70
     1
  0
XRECORD
  5
2586
102
{ACAD_REACTORS
330
2585
102
}
330
2585
100
AcDbXrecord
280
     1
102
RTVSPost2010Prop28
280
     0
102
RTVSPost2010PropOp28
 70
     1
102
RTVSPost2010Prop29
280
     1
102
RTVSPost2010PropOp29
 70
     1
102
RTVSPost2010Prop30
280
     1
102
RTVSPost2010PropOp30
 70
     1
102
RTVSPost2010Prop31
280
     0
102
RTVSPost2010PropOp31
 70
     1
102
RTVSPost2010Prop32
280
     0
102
RTVSPost2010PropOp32
 70
     1
102
RTVSPost2010Prop33
280
     0
102
RTVSPost2010PropOp33
 70
     1
102
RTVSPost2010Prop34
280
     0
102
RTVSPost2010PropOp34
 70
     1
102
RTVSPost2010Prop35
280
     0
102
RTVSPost2010PropOp35
 70
     1
102
RTVSPost2010Prop36
280
     0
102
RTVSPost2010PropOp36
 70
     1
102
RTVSPost2010Prop37
 90
       50
102
RTVSPost2010PropOp37
 70
     1
102
RTVSPost2010Prop38
140
0.0
102
RTVSPost2010PropOp38
 70
     1
102
RTVSPost2010Prop39
140
1.0
102
RTVSPost2010PropOp39
 70
     1
102
RTVSPost2010Prop40
 90
        0
102
RTVSPost2010PropOp40
 70
     1
102
RTVSPost2010Prop41ColorIndex
 90
       18
102
RTVSPost2010Prop41ColorRGB
 90
        0
102
RTVSPost2010PropOp41
 70
     1
102
RTVSPost2010Prop42
 90
       50
102
RTVSPost2010PropOp42
 70
     1
102
RTVSPost2010Prop43
 90
        3
102
RTVSPost2010PropOp43
 70
     1
102
RTVSPost2010Prop44ColorIndex
 90
        5
102
RTVSPost2010Prop44ColorRGB
 90
      255
102
RTVSPost2010PropOp44
 70
     1
102
RTVSPost2010Prop45
280
     0
102
RTVSPost2010PropOp45
 70
     1
102
RTVSPost2010Prop46
 90
       50
102
RTVSPost2010PropOp46
 70
     1
102
RTVSPost2010Prop47
 90
       50
102
RTVSPost2010PropOp47
 70
     1
102
RTVSPost2010Prop48
 90
       50
102
RTVSPost2010PropOp48
 70
     1
102
RTVSPost2010Prop49
280
     0
102
RTVSPost2010PropOp49
 70
     1
102
RTVSPost2010Prop50
 90
       50
102
RTVSPost2010PropOp50
 70
     1
102
RTVSPost2010Prop51ColorIndex
 90
      256
102
RTVSPost2010Prop51ColorRGB
 90
-16777216
102
RTVSPost2010PropOp51
 70
     0
102
RTVSPost2010Prop52
140
1.0
102
RTVSPost2010PropOp52
 70
     0
102
RTVSPost2010Prop53
 90
        2
102
RTVSPost2010PropOp53
 70
     1
102
RTVSPost2010Prop54
  1
strokes_ogs.tif
102
RTVSPost2010PropOp54
 70
     1
102
RTVSPost2010Prop55
280
     0
102
RTVSPost2010PropOp55
 70
     1
102
RTVSPost2010Prop56
140
1.0
102
RTVSPost2010PropOp56
 70
     1
102
RTVSPost2010Prop57
140
1.0
102
RTVSPost2010PropOp57
 70
     1
102
RTVSPropertyOp0
 70
     1
102
RTVSPropertyOp1
 70
     1
102
RTVSPropertyOp2
 70
     1
102
RTVSPropertyOp3
 70
     1
102
RTVSPropertyOp4
 70
     1
102
RTVSPropertyOp5
 70
     1
102
RTVSPropertyOp6
 70
     1
102
RTVSPropertyOp7
 70
     1
102
RTVSPropertyOp8
 70
     1
102
RTVSPropertyOp9
 70
     1
102
RTVSPropertyOp10
 70
     1
102
RTVSPropertyOp11
 70
     1
102
RTVSPropertyOp12
 70
     1
102
RTVSPropertyOp13
 70
     1
102
RTVSPropertyOp14
 70
     1
102
RTVSPropertyOp15
 70
     1
102
RTVSPropertyOp16
 70
     1
102
RTVSPropertyOp17
 70
     1
102
RTVSPropertyOp18
 70
     1
102
RTVSPropertyOp19
 70
     1
102
RTVSPropertyOp20
 70
     1
102
RTVSPropertyOp21
 70
     1
102
RTVSPropertyOp22
 70
     1
102
RTVSPropertyOp23
 70
     1
102
RTVSPropertyOp24
 70
     1
102
RTVSPropertyOp25
 70
     1
102
RTVSPropertyOp26
 70
     1
102
RTVSPropertyOp27
 70
     1
102
RTVSPropertyOp28
 70
     1
102
RTVSPropertyOp29
 70
     1
102
RTVSPropertyOp30
 70
     1
102
RTVSPropertyOp31
 70
     1
102
RTVSPropertyOp32
 70
     1
102
RTVSPropertyOp33
 70
     1
102
RTVSPropertyOp34
 70
     1
102
RTVSPropertyOp35
 70
     1
102
RTVSPropertyOp36
 70
     1
102
RTVSPropertyOp37
 70
     1
102
RTVSPropertyOp38
 70
     1
102
RTVSPropertyOp39
 70
     1
102
RTVSPropertyOp40
 70
     1
102
RTVSPropertyOp41
 70
     1
102
RTVSPropertyOp42
 70
     1
102
RTVSPropertyOp43
 70
     1
102
RTVSPropertyOp44
 70
     1
102
RTVSPropertyOp45
 70
     1
102
RTVSPropertyOp46
 70
     1
102
RTVSPropertyOp47
 70
     1
102
RTVSPropertyOp48
 70
     1
102
RTVSPropertyOp49
 70
     1
102
RTVSPropertyOp50
 70
     1
102
RTVSPropertyOp51
 70
     0
102
RTVSPropertyOp52
 70
     0
102
RTVSPropertyOp53
 70
     1
102
RTVSPropertyOp54
 70
     1
102
RTVSPropertyOp55
 70
     1
102
RTVSPropertyOp56
 70
     1
102
RTVSPropertyOp57
 70
     1
102
RTVSPropertyOp58
 70
     1
102
RTVSPropertyOp59
 70
     1
102
RTVSPropertyOp60
 70
     1
102
RTVSPropertyOp61
 70
     1
102
RTVSPropertyOp62
 70
     1
  0
XRECORD
  5
2588
102
{ACAD_REACTORS
330
2587
102
}
330
2587
100
AcDbXrecord
280
     1
102
RTVSPost2010Prop28
280
     0
102
RTVSPost2010PropOp28
 70
     1
102
RTVSPost2010Prop29
280
     1
102
RTVSPost2010PropOp29
 70
     1
102
RTVSPost2010Prop30
280
     1
102
RTVSPost2010PropOp30
 70
     1
102
RTVSPost2010Prop31
280
     0
102
RTVSPost2010PropOp31
 70
     1
102
RTVSPost2010Prop32
280
     0
102
RTVSPost2010PropOp32
 70
     1
102
RTVSPost2010Prop33
280
     0
102
RTVSPost2010PropOp33
 70
     1
102
RTVSPost2010Prop34
280
     0
102
RTVSPost2010PropOp34
 70
     1
102
RTVSPost2010Prop35
280
     0
102
RTVSPost2010PropOp35
 70
     1
102
RTVSPost2010Prop36
280
     0
102
RTVSPost2010PropOp36
 70
     1
102
RTVSPost2010Prop37
 90
       50
102
RTVSPost2010PropOp37
 70
     1
102
RTVSPost2010Prop38
140
0.0
102
RTVSPost2010PropOp38
 70
     1
102
RTVSPost2010Prop39
140
1.0
102
RTVSPost2010PropOp39
 70
     1
102
RTVSPost2010Prop40
 90
        0
102
RTVSPost2010PropOp40
 70
     1
102
RTVSPost2010Prop41ColorIndex
 90
       18
102
RTVSPost2010Prop41ColorRGB
 90
        0
102
RTVSPost2010PropOp41
 70
     1
102
RTVSPost2010Prop42
 90
       50
102
RTVSPost2010PropOp42
 70
     1
102
RTVSPost2010Prop43
 90
        3
102
RTVSPost2010PropOp43
 70
     1
102
RTVSPost2010Prop44ColorIndex
 90
        5
102
RTVSPost2010Prop44ColorRGB
 90
      255
102
RTVSPost2010PropOp44
 70
     1
102
RTVSPost2010Prop45
280
     0
102
RTVSPost2010PropOp45
 70
     1
102
RTVSPost2010Prop46
 90
       50
102
RTVSPost2010PropOp46
 70
     1
102
RTVSPost2010Prop47
 90
       50
102
RTVSPost2010PropOp47
 70
     1
102
RTVSPost2010Prop48
 90
       50
102
RTVSPost2010PropOp48
 70
     1
102
RTVSPost2010Prop49
280
     0
102
RTVSPost2010PropOp49
 70
     1
102
RTVSPost2010Prop50
 90
       50
102
RTVSPost2010PropOp50
 70
     1
102
RTVSPost2010Prop51ColorIndex
 90
      256
102
RTVSPost2010Prop51ColorRGB
 90
-16777216
102
RTVSPost2010PropOp51
 70
     0
102
RTVSPost2010Prop52
140
1.0
102
RTVSPost2010PropOp52
 70
     0
102
RTVSPost2010Prop53
 90
        2
102
RTVSPost2010PropOp53
 70
     1
102
RTVSPost2010Prop54
  1
strokes_ogs.tif
102
RTVSPost2010PropOp54
 70
     1
102
RTVSPost2010Prop55
280
     0
102
RTVSPost2010PropOp55
 70
     1
102
RTVSPost2010Prop56
140
1.0
102
RTVSPost2010PropOp56
 70
     1
102
RTVSPost2010Prop57
140
1.0
102
RTVSPost2010PropOp57
 70
     1
102
RTVSPropertyOp0
 70
     1
102
RTVSPropertyOp1
 70
     1
102
RTVSPropertyOp2
 70
     1
102
RTVSPropertyOp3
 70
     1
102
RTVSPropertyOp4
 70
     1
102
RTVSPropertyOp5
 70
     1
102
RTVSPropertyOp6
 70
     1
102
RTVSPropertyOp7
 70
     1
102
RTVSPropertyOp8
 70
     1
102
RTVSPropertyOp9
 70
     1
102
RTVSPropertyOp10
 70
     1
102
RTVSPropertyOp11
 70
     1
102
RTVSPropertyOp12
 70
     1
102
RTVSPropertyOp13
 70
     1
102
RTVSPropertyOp14
 70
     1
102
RTVSPropertyOp15
 70
     1
102
RTVSPropertyOp16
 70
     1
102
RTVSPropertyOp17
 70
     1
102
RTVSPropertyOp18
 70
     1
102
RTVSPropertyOp19
 70
     1
102
RTVSPropertyOp20
 70
     1
102
RTVSPropertyOp21
 70
     1
102
RTVSPropertyOp22
 70
     1
102
RTVSPropertyOp23
 70
     1
102
RTVSPropertyOp24
 70
     1
102
RTVSPropertyOp25
 70
     1
102
RTVSPropertyOp26
 70
     1
102
RTVSPropertyOp27
 70
     1
102
RTVSPropertyOp28
 70
     1
102
RTVSPropertyOp29
 70
     1
102
RTVSPropertyOp30
 70
     1
102
RTVSPropertyOp31
 70
     1
102
RTVSPropertyOp32
 70
     1
102
RTVSPropertyOp33
 70
     1
102
RTVSPropertyOp34
 70
     1
102
RTVSPropertyOp35
 70
     1
102
RTVSPropertyOp36
 70
     1
102
RTVSPropertyOp37
 70
     1
102
RTVSPropertyOp38
 70
     1
102
RTVSPropertyOp39
 70
     1
102
RTVSPropertyOp40
 70
     1
102
RTVSPropertyOp41
 70
     1
102
RTVSPropertyOp42
 70
     1
102
RTVSPropertyOp43
 70
     1
102
RTVSPropertyOp44
 70
     1
102
RTVSPropertyOp45
 70
     1
102
RTVSPropertyOp46
 70
     1
102
RTVSPropertyOp47
 70
     1
102
RTVSPropertyOp48
 70
     1
102
RTVSPropertyOp49
 70
     1
102
RTVSPropertyOp50
 70
     1
102
RTVSPropertyOp51
 70
     0
102
RTVSPropertyOp52
 70
     0
102
RTVSPropertyOp53
 70
     1
102
RTVSPropertyOp54
 70
     1
102
RTVSPropertyOp55
 70
     1
102
RTVSPropertyOp56
 70
     1
102
RTVSPropertyOp57
 70
     1
102
RTVSPropertyOp58
 70
     1
102
RTVSPropertyOp59
 70
     1
102
RTVSPropertyOp60
 70
     1
102
RTVSPropertyOp61
 70
     1
102
RTVSPropertyOp62
 70
     1
  0
XRECORD
  5
25A4
102
{ACAD_REACTORS
330
25A3
102
}
330
25A3
100
AcDbXrecord
280
     1
102
RTVSPost2010Prop28
280
     0
102
RTVSPost2010PropOp28
 70
     1
102
RTVSPost2010Prop29
280
     1
102
RTVSPost2010PropOp29
 70
     1
102
RTVSPost2010Prop30
280
     1
102
RTVSPost2010PropOp30
 70
     1
102
RTVSPost2010Prop31
280
     0
102
RTVSPost2010PropOp31
 70
     1
102
RTVSPost2010Prop32
280
     0
102
RTVSPost2010PropOp32
 70
     1
102
RTVSPost2010Prop33
280
     0
102
RTVSPost2010PropOp33
 70
     1
102
RTVSPost2010Prop34
280
     0
102
RTVSPost2010PropOp34
 70
     1
102
RTVSPost2010Prop35
280
     0
102
RTVSPost2010PropOp35
 70
     1
102
RTVSPost2010Prop36
280
     0
102
RTVSPost2010PropOp36
 70
     1
102
RTVSPost2010Prop37
 90
       50
102
RTVSPost2010PropOp37
 70
     1
102
RTVSPost2010Prop38
140
0.0
102
RTVSPost2010PropOp38
 70
     1
102
RTVSPost2010Prop39
140
1.0
102
RTVSPost2010PropOp39
 70
     1
102
RTVSPost2010Prop40
 90
        0
102
RTVSPost2010PropOp40
 70
     1
102
RTVSPost2010Prop41ColorIndex
 90
       18
102
RTVSPost2010Prop41ColorRGB
 90
        0
102
RTVSPost2010PropOp41
 70
     1
102
RTVSPost2010Prop42
 90
       50
102
RTVSPost2010PropOp42
 70
     1
102
RTVSPost2010Prop43
 90
        3
102
RTVSPost2010PropOp43
 70
     1
102
RTVSPost2010Prop44ColorIndex
 90
        5
102
RTVSPost2010Prop44ColorRGB
 90
      255
102
RTVSPost2010PropOp44
 70
     1
102
RTVSPost2010Prop45
280
     0
102
RTVSPost2010PropOp45
 70
     1
102
RTVSPost2010Prop46
 90
       50
102
RTVSPost2010PropOp46
 70
     1
102
RTVSPost2010Prop47
 90
       50
102
RTVSPost2010PropOp47
 70
     1
102
RTVSPost2010Prop48
 90
       50
102
RTVSPost2010PropOp48
 70
     1
102
RTVSPost2010Prop49
280
     0
102
RTVSPost2010PropOp49
 70
     1
102
RTVSPost2010Prop50
 90
       50
102
RTVSPost2010PropOp50
 70
     1
102
RTVSPost2010Prop51ColorIndex
 90
      256
102
RTVSPost2010Prop51ColorRGB
 90
-16777216
102
RTVSPost2010PropOp51
 70
     0
102
RTVSPost2010Prop52
140
1.0
102
RTVSPost2010PropOp52
 70
     0
102
RTVSPost2010Prop53
 90
        2
102
RTVSPost2010PropOp53
 70
     1
102
RTVSPost2010Prop54
  1
strokes_ogs.tif
102
RTVSPost2010PropOp54
 70
     1
102
RTVSPost2010Prop55
280
     0
102
RTVSPost2010PropOp55
 70
     1
102
RTVSPost2010Prop56
140
1.0
102
RTVSPost2010PropOp56
 70
     1
102
RTVSPost2010Prop57
140
1.0
102
RTVSPost2010PropOp57
 70
     1
102
RTVSPropertyOp0
 70
     1
102
RTVSPropertyOp1
 70
     1
102
RTVSPropertyOp2
 70
     1
102
RTVSPropertyOp3
 70
     1
102
RTVSPropertyOp4
 70
     1
102
RTVSPropertyOp5
 70
     1
102
RTVSPropertyOp6
 70
     1
102
RTVSPropertyOp7
 70
     1
102
RTVSPropertyOp8
 70
     1
102
RTVSPropertyOp9
 70
     1
102
RTVSPropertyOp10
 70
     1
102
RTVSPropertyOp11
 70
     1
102
RTVSPropertyOp12
 70
     1
102
RTVSPropertyOp13
 70
     1
102
RTVSPropertyOp14
 70
     1
102
RTVSPropertyOp15
 70
     1
102
RTVSPropertyOp16
 70
     1
102
RTVSPropertyOp17
 70
     1
102
RTVSPropertyOp18
 70
     1
102
RTVSPropertyOp19
 70
     1
102
RTVSPropertyOp20
 70
     1
102
RTVSPropertyOp21
 70
     1
102
RTVSPropertyOp22
 70
     1
102
RTVSPropertyOp23
 70
     1
102
RTVSPropertyOp24
 70
     1
102
RTVSPropertyOp25
 70
     1
102
RTVSPropertyOp26
 70
     1
102
RTVSPropertyOp27
 70
     1
102
RTVSPropertyOp28
 70
     1
102
RTVSPropertyOp29
 70
     1
102
RTVSPropertyOp30
 70
     1
102
RTVSPropertyOp31
 70
     1
102
RTVSPropertyOp32
 70
     1
102
RTVSPropertyOp33
 70
     1
102
RTVSPropertyOp34
 70
     1
102
RTVSPropertyOp35
 70
     1
102
RTVSPropertyOp36
 70
     1
102
RTVSPropertyOp37
 70
     1
102
RTVSPropertyOp38
 70
     1
102
RTVSPropertyOp39
 70
     1
102
RTVSPropertyOp40
 70
     1
102
RTVSPropertyOp41
 70
     1
102
RTVSPropertyOp42
 70
     1
102
RTVSPropertyOp43
 70
     1
102
RTVSPropertyOp44
 70
     1
102
RTVSPropertyOp45
 70
     1
102
RTVSPropertyOp46
 70
     1
102
RTVSPropertyOp47
 70
     1
102
RTVSPropertyOp48
 70
     1
102
RTVSPropertyOp49
 70
     1
102
RTVSPropertyOp50
 70
     1
102
RTVSPropertyOp51
 70
     0
102
RTVSPropertyOp52
 70
     0
102
RTVSPropertyOp53
 70
     1
102
RTVSPropertyOp54
 70
     1
102
RTVSPropertyOp55
 70
     1
102
RTVSPropertyOp56
 70
     1
102
RTVSPropertyOp57
 70
     1
102
RTVSPropertyOp58
 70
     1
102
RTVSPropertyOp59
 70
     1
102
RTVSPropertyOp60
 70
     1
102
RTVSPropertyOp61
 70
     1
102
RTVSPropertyOp62
 70
     1
  0
XRECORD
  5
25B0
102
{ACAD_REACTORS
330
25AF
102
}
330
25AF
100
AcDbXrecord
280
     1
102
RTVSPost2010Prop28
280
     0
102
RTVSPost2010PropOp28
 70
     0
102
RTVSPost2010Prop29
280
     1
102
RTVSPost2010PropOp29
 70
     0
102
RTVSPost2010Prop30
280
     1
102
RTVSPost2010PropOp30
 70
     0
102
RTVSPost2010Prop31
280
     0
102
RTVSPost2010PropOp31
 70
     0
102
RTVSPost2010Prop32
280
     0
102
RTVSPost2010PropOp32
 70
     0
102
RTVSPost2010Prop33
280
     0
102
RTVSPost2010PropOp33
 70
     0
102
RTVSPost2010Prop34
280
     0
102
RTVSPost2010PropOp34
 70
     0
102
RTVSPost2010Prop35
280
     0
102
RTVSPost2010PropOp35
 70
     0
102
RTVSPost2010Prop36
280
     0
102
RTVSPost2010PropOp36
 70
     0
102
RTVSPost2010Prop37
 90
       50
102
RTVSPost2010PropOp37
 70
     0
102
RTVSPost2010Prop38
140
0.0
102
RTVSPost2010PropOp38
 70
     0
102
RTVSPost2010Prop39
140
1.0
102
RTVSPost2010PropOp39
 70
     0
102
RTVSPost2010Prop40
 90
        0
102
RTVSPost2010PropOp40
 70
     0
102
RTVSPost2010Prop41ColorIndex
 90
       18
102
RTVSPost2010Prop41ColorRGB
 90
        0
102
RTVSPost2010PropOp41
 70
     0
102
RTVSPost2010Prop42
 90
       50
102
RTVSPost2010PropOp42
 70
     0
102
RTVSPost2010Prop43
 90
        3
102
RTVSPost2010PropOp43
 70
     0
102
RTVSPost2010Prop44ColorIndex
 90
        5
102
RTVSPost2010Prop44ColorRGB
 90
      255
102
RTVSPost2010PropOp44
 70
     0
102
RTVSPost2010Prop45
280
     0
102
RTVSPost2010PropOp45
 70
     0
102
RTVSPost2010Prop46
 90
       50
102
RTVSPost2010PropOp46
 70
     0
102
RTVSPost2010Prop47
 90
       50
102
RTVSPost2010PropOp47
 70
     0
102
RTVSPost2010Prop48
 90
       50
102
RTVSPost2010PropOp48
 70
     0
102
RTVSPost2010Prop49
280
     0
102
RTVSPost2010PropOp49
 70
     0
102
RTVSPost2010Prop50
 90
       50
102
RTVSPost2010PropOp50
 70
     0
102
RTVSPost2010Prop51ColorIndex
 90
      256
102
RTVSPost2010Prop51ColorRGB
 90
-16777216
102
RTVSPost2010PropOp51
 70
     0
102
RTVSPost2010Prop52
140
1.0
102
RTVSPost2010PropOp52
 70
     0
102
RTVSPost2010Prop53
 90
        2
102
RTVSPost2010PropOp53
 70
     0
102
RTVSPost2010Prop54
  1
strokes_ogs.tif
102
RTVSPost2010PropOp54
 70
     0
102
RTVSPost2010Prop55
280
     0
102
RTVSPost2010PropOp55
 70
     0
102
RTVSPost2010Prop56
140
1.0
102
RTVSPost2010PropOp56
 70
     0
102
RTVSPost2010Prop57
140
1.0
102
RTVSPost2010PropOp57
 70
     0
102
RTVSPropertyOp0
 70
     0
102
RTVSPropertyOp1
 70
     0
102
RTVSPropertyOp2
 70
     0
102
RTVSPropertyOp3
 70
     0
102
RTVSPropertyOp4
 70
     0
102
RTVSPropertyOp5
 70
     0
102
RTVSPropertyOp6
 70
     0
102
RTVSPropertyOp7
 70
     0
102
RTVSPropertyOp8
 70
     0
102
RTVSPropertyOp9
 70
     0
102
RTVSPropertyOp10
 70
     0
102
RTVSPropertyOp11
 70
     0
102
RTVSPropertyOp12
 70
     0
102
RTVSPropertyOp13
 70
     0
102
RTVSPropertyOp14
 70
     2
102
RTVSPropertyOp15
 70
     0
102
RTVSPropertyOp16
 70
     0
102
RTVSPropertyOp17
 70
     0
102
RTVSPropertyOp18
 70
     0
102
RTVSPropertyOp19
 70
     0
102
RTVSPropertyOp20
 70
     0
102
RTVSPropertyOp21
 70
     0
102
RTVSPropertyOp22
 70
     0
102
RTVSPropertyOp23
 70
     0
102
RTVSPropertyOp24
 70
     0
102
RTVSPropertyOp25
 70
     0
102
RTVSPropertyOp26
 70
     0
102
RTVSPropertyOp27
 70
     0
102
RTVSPropertyOp28
 70
     0
102
RTVSPropertyOp29
 70
     0
102
RTVSPropertyOp30
 70
     0
102
RTVSPropertyOp31
 70
     0
102
RTVSPropertyOp32
 70
     0
102
RTVSPropertyOp33
 70
     0
102
RTVSPropertyOp34
 70
     0
102
RTVSPropertyOp35
 70
     0
102
RTVSPropertyOp36
 70
     0
102
RTVSPropertyOp37
 70
     0
102
RTVSPropertyOp38
 70
     0
102
RTVSPropertyOp39
 70
     0
102
RTVSPropertyOp40
 70
     0
102
RTVSPropertyOp41
 70
     0
102
RTVSPropertyOp42
 70
     0
102
RTVSPropertyOp43
 70
     0
102
RTVSPropertyOp44
 70
     0
102
RTVSPropertyOp45
 70
     0
102
RTVSPropertyOp46
 70
     0
102
RTVSPropertyOp47
 70
     0
102
RTVSPropertyOp48
 70
     0
102
RTVSPropertyOp49
 70
     0
102
RTVSPropertyOp50
 70
     0
102
RTVSPropertyOp51
 70
     0
102
RTVSPropertyOp52
 70
     0
102
RTVSPropertyOp53
 70
     0
102
RTVSPropertyOp54
 70
     0
102
RTVSPropertyOp55
 70
     0
102
RTVSPropertyOp56
 70
     0
102
RTVSPropertyOp57
 70
     0
102
RTVSPropertyOp58
 70
     0
102
RTVSPropertyOp59
 70
     0
102
RTVSPropertyOp60
 70
     0
102
RTVSPropertyOp61
 70
     0
102
RTVSPropertyOp62
 70
     0
  0
XRECORD
  5
259C
102
{ACAD_REACTORS
330
259B
102
}
330
259B
100
AcDbXrecord
280
     1
102
RTVSPost2010Prop28
280
     0
102
RTVSPost2010PropOp28
 70
     1
102
RTVSPost2010Prop29
280
     1
102
RTVSPost2010PropOp29
 70
     1
102
RTVSPost2010Prop30
280
     1
102
RTVSPost2010PropOp30
 70
     1
102
RTVSPost2010Prop31
280
     0
102
RTVSPost2010PropOp31
 70
     1
102
RTVSPost2010Prop32
280
     0
102
RTVSPost2010PropOp32
 70
     1
102
RTVSPost2010Prop33
280
     0
102
RTVSPost2010PropOp33
 70
     1
102
RTVSPost2010Prop34
280
     0
102
RTVSPost2010PropOp34
 70
     1
102
RTVSPost2010Prop35
280
     0
102
RTVSPost2010PropOp35
 70
     1
102
RTVSPost2010Prop36
280
     0
102
RTVSPost2010PropOp36
 70
     1
102
RTVSPost2010Prop37
 90
       50
102
RTVSPost2010PropOp37
 70
     1
102
RTVSPost2010Prop38
140
0.0
102
RTVSPost2010PropOp38
 70
     1
102
RTVSPost2010Prop39
140
1.0
102
RTVSPost2010PropOp39
 70
     1
102
RTVSPost2010Prop40
 90
        0
102
RTVSPost2010PropOp40
 70
     1
102
RTVSPost2010Prop41ColorIndex
 90
       18
102
RTVSPost2010Prop41ColorRGB
 90
        0
102
RTVSPost2010PropOp41
 70
     1
102
RTVSPost2010Prop42
 90
       50
102
RTVSPost2010PropOp42
 70
     1
102
RTVSPost2010Prop43
 90
        3
102
RTVSPost2010PropOp43
 70
     1
102
RTVSPost2010Prop44ColorIndex
 90
        5
102
RTVSPost2010Prop44ColorRGB
 90
      255
102
RTVSPost2010PropOp44
 70
     1
102
RTVSPost2010Prop45
280
     0
102
RTVSPost2010PropOp45
 70
     1
102
RTVSPost2010Prop46
 90
       50
102
RTVSPost2010PropOp46
 70
     1
102
RTVSPost2010Prop47
 90
       50
102
RTVSPost2010PropOp47
 70
     1
102
RTVSPost2010Prop48
 90
       50
102
RTVSPost2010PropOp48
 70
     1
102
RTVSPost2010Prop49
280
     0
102
RTVSPost2010PropOp49
 70
     1
102
RTVSPost2010Prop50
 90
       50
102
RTVSPost2010PropOp50
 70
     1
102
RTVSPost2010Prop51ColorIndex
 90
      256
102
RTVSPost2010Prop51ColorRGB
 90
-16777216
102
RTVSPost2010PropOp51
 70
     0
102
RTVSPost2010Prop52
140
1.0
102
RTVSPost2010PropOp52
 70
     0
102
RTVSPost2010Prop53
 90
        2
102
RTVSPost2010PropOp53
 70
     1
102
RTVSPost2010Prop54
  1
strokes_ogs.tif
102
RTVSPost2010PropOp54
 70
     1
102
RTVSPost2010Prop55
280
     0
102
RTVSPost2010PropOp55
 70
     1
102
RTVSPost2010Prop56
140
1.0
102
RTVSPost2010PropOp56
 70
     1
102
RTVSPost2010Prop57
140
1.0
102
RTVSPost2010PropOp57
 70
     1
102
RTVSPropertyOp0
 70
     1
102
RTVSPropertyOp1
 70
     1
102
RTVSPropertyOp2
 70
     1
102
RTVSPropertyOp3
 70
     1
102
RTVSPropertyOp4
 70
     1
102
RTVSPropertyOp5
 70
     1
102
RTVSPropertyOp6
 70
     1
102
RTVSPropertyOp7
 70
     1
102
RTVSPropertyOp8
 70
     1
102
RTVSPropertyOp9
 70
     1
102
RTVSPropertyOp10
 70
     1
102
RTVSPropertyOp11
 70
     1
102
RTVSPropertyOp12
 70
     1
102
RTVSPropertyOp13
 70
     1
102
RTVSPropertyOp14
 70
     1
102
RTVSPropertyOp15
 70
     1
102
RTVSPropertyOp16
 70
     1
102
RTVSPropertyOp17
 70
     1
102
RTVSPropertyOp18
 70
     1
102
RTVSPropertyOp19
 70
     1
102
RTVSPropertyOp20
 70
     1
102
RTVSPropertyOp21
 70
     1
102
RTVSPropertyOp22
 70
     1
102
RTVSPropertyOp23
 70
     1
102
RTVSPropertyOp24
 70
     1
102
RTVSPropertyOp25
 70
     1
102
RTVSPropertyOp26
 70
     1
102
RTVSPropertyOp27
 70
     1
102
RTVSPropertyOp28
 70
     1
102
RTVSPropertyOp29
 70
     1
102
RTVSPropertyOp30
 70
     1
102
RTVSPropertyOp31
 70
     1
102
RTVSPropertyOp32
 70
     1
102
RTVSPropertyOp33
 70
     1
102
RTVSPropertyOp34
 70
     1
102
RTVSPropertyOp35
 70
     1
102
RTVSPropertyOp36
 70
     1
102
RTVSPropertyOp37
 70
     1
102
RTVSPropertyOp38
 70
     1
102
RTVSPropertyOp39
 70
     1
102
RTVSPropertyOp40
 70
     1
102
RTVSPropertyOp41
 70
     1
102
RTVSPropertyOp42
 70
     1
102
RTVSPropertyOp43
 70
     1
102
RTVSPropertyOp44
 70
     1
102
RTVSPropertyOp45
 70
     1
102
RTVSPropertyOp46
 70
     1
102
RTVSPropertyOp47
 70
     1
102
RTVSPropertyOp48
 70
     1
102
RTVSPropertyOp49
 70
     1
102
RTVSPropertyOp50
 70
     1
102
RTVSPropertyOp51
 70
     0
102
RTVSPropertyOp52
 70
     0
102
RTVSPropertyOp53
 70
     1
102
RTVSPropertyOp54
 70
     1
102
RTVSPropertyOp55
 70
     1
102
RTVSPropertyOp56
 70
     1
102
RTVSPropertyOp57
 70
     1
102
RTVSPropertyOp58
 70
     1
102
RTVSPropertyOp59
 70
     1
102
RTVSPropertyOp60
 70
     1
102
RTVSPropertyOp61
 70
     1
102
RTVSPropertyOp62
 70
     1
  0
XRECORD
  5
25B2
102
{ACAD_REACTORS
330
25B1
102
}
330
25B1
100
AcDbXrecord
280
     1
102
RTVSPost2010Prop28
280
     0
102
RTVSPost2010PropOp28
 70
     0
102
RTVSPost2010Prop29
280
     1
102
RTVSPost2010PropOp29
 70
     0
102
RTVSPost2010Prop30
280
     1
102
RTVSPost2010PropOp30
 70
     0
102
RTVSPost2010Prop31
280
     0
102
RTVSPost2010PropOp31
 70
     0
102
RTVSPost2010Prop32
280
     0
102
RTVSPost2010PropOp32
 70
     0
102
RTVSPost2010Prop33
280
     0
102
RTVSPost2010PropOp33
 70
     0
102
RTVSPost2010Prop34
280
     0
102
RTVSPost2010PropOp34
 70
     0
102
RTVSPost2010Prop35
280
     0
102
RTVSPost2010PropOp35
 70
     0
102
RTVSPost2010Prop36
280
     0
102
RTVSPost2010PropOp36
 70
     0
102
RTVSPost2010Prop37
 90
       50
102
RTVSPost2010PropOp37
 70
     0
102
RTVSPost2010Prop38
140
0.0
102
RTVSPost2010PropOp38
 70
     0
102
RTVSPost2010Prop39
140
1.0
102
RTVSPost2010PropOp39
 70
     0
102
RTVSPost2010Prop40
 90
        0
102
RTVSPost2010PropOp40
 70
     0
102
RTVSPost2010Prop41ColorIndex
 90
       18
102
RTVSPost2010Prop41ColorRGB
 90
        0
102
RTVSPost2010PropOp41
 70
     0
102
RTVSPost2010Prop42
 90
       50
102
RTVSPost2010PropOp42
 70
     0
102
RTVSPost2010Prop43
 90
        3
102
RTVSPost2010PropOp43
 70
     0
102
RTVSPost2010Prop44ColorIndex
 90
        5
102
RTVSPost2010Prop44ColorRGB
 90
      255
102
RTVSPost2010PropOp44
 70
     0
102
RTVSPost2010Prop45
280
     0
102
RTVSPost2010PropOp45
 70
     0
102
RTVSPost2010Prop46
 90
       50
102
RTVSPost2010PropOp46
 70
     0
102
RTVSPost2010Prop47
 90
       50
102
RTVSPost2010PropOp47
 70
     0
102
RTVSPost2010Prop48
 90
       50
102
RTVSPost2010PropOp48
 70
     0
102
RTVSPost2010Prop49
280
     0
102
RTVSPost2010PropOp49
 70
     0
102
RTVSPost2010Prop50
 90
       50
102
RTVSPost2010PropOp50
 70
     0
102
RTVSPost2010Prop51ColorIndex
 90
      256
102
RTVSPost2010Prop51ColorRGB
 90
-16777216
102
RTVSPost2010PropOp51
 70
     0
102
RTVSPost2010Prop52
140
1.0
102
RTVSPost2010PropOp52
 70
     0
102
RTVSPost2010Prop53
 90
        2
102
RTVSPost2010PropOp53
 70
     0
102
RTVSPost2010Prop54
  1
strokes_ogs.tif
102
RTVSPost2010PropOp54
 70
     0
102
RTVSPost2010Prop55
280
     0
102
RTVSPost2010PropOp55
 70
     0
102
RTVSPost2010Prop56
140
1.0
102
RTVSPost2010PropOp56
 70
     0
102
RTVSPost2010Prop57
140
1.0
102
RTVSPost2010PropOp57
 70
     0
102
RTVSPropertyOp0
 70
     0
102
RTVSPropertyOp1
 70
     0
102
RTVSPropertyOp2
 70
     0
102
RTVSPropertyOp3
 70
     0
102
RTVSPropertyOp4
 70
     0
102
RTVSPropertyOp5
 70
     0
102
RTVSPropertyOp6
 70
     0
102
RTVSPropertyOp7
 70
     0
102
RTVSPropertyOp8
 70
     0
102
RTVSPropertyOp9
 70
     0
102
RTVSPropertyOp10
 70
     0
102
RTVSPropertyOp11
 70
     0
102
RTVSPropertyOp12
 70
     0
102
RTVSPropertyOp13
 70
     0
102
RTVSPropertyOp14
 70
     2
102
RTVSPropertyOp15
 70
     0
102
RTVSPropertyOp16
 70
     0
102
RTVSPropertyOp17
 70
     0
102
RTVSPropertyOp18
 70
     0
102
RTVSPropertyOp19
 70
     0
102
RTVSPropertyOp20
 70
     0
102
RTVSPropertyOp21
 70
     0
102
RTVSPropertyOp22
 70
     0
102
RTVSPropertyOp23
 70
     0
102
RTVSPropertyOp24
 70
     0
102
RTVSPropertyOp25
 70
     0
102
RTVSPropertyOp26
 70
     0
102
RTVSPropertyOp27
 70
     0
102
RTVSPropertyOp28
 70
     0
102
RTVSPropertyOp29
 70
     0
102
RTVSPropertyOp30
 70
     0
102
RTVSPropertyOp31
 70
     0
102
RTVSPropertyOp32
 70
     0
102
RTVSPropertyOp33
 70
     0
102
RTVSPropertyOp34
 70
     0
102
RTVSPropertyOp35
 70
     0
102
RTVSPropertyOp36
 70
     0
102
RTVSPropertyOp37
 70
     0
102
RTVSPropertyOp38
 70
     0
102
RTVSPropertyOp39
 70
     0
102
RTVSPropertyOp40
 70
     0
102
RTVSPropertyOp41
 70
     0
102
RTVSPropertyOp42
 70
     0
102
RTVSPropertyOp43
 70
     0
102
RTVSPropertyOp44
 70
     0
102
RTVSPropertyOp45
 70
     0
102
RTVSPropertyOp46
 70
     0
102
RTVSPropertyOp47
 70
     0
102
RTVSPropertyOp48
 70
     0
102
RTVSPropertyOp49
 70
     0
102
RTVSPropertyOp50
 70
     0
102
RTVSPropertyOp51
 70
     0
102
RTVSPropertyOp52
 70
     0
102
RTVSPropertyOp53
 70
     0
102
RTVSPropertyOp54
 70
     0
102
RTVSPropertyOp55
 70
     0
102
RTVSPropertyOp56
 70
     0
102
RTVSPropertyOp57
 70
     0
102
RTVSPropertyOp58
 70
     0
102
RTVSPropertyOp59
 70
     0
102
RTVSPropertyOp60
 70
     0
102
RTVSPropertyOp61
 70
     0
102
RTVSPropertyOp62
 70
     0
  0
XRECORD
  5
2594
102
{ACAD_REACTORS
330
2593
102
}
330
2593
100
AcDbXrecord
280
     1
102
RTVSPost2010Prop28
280
     0
102
RTVSPost2010PropOp28
 70
     1
102
RTVSPost2010Prop29
280
     1
102
RTVSPost2010PropOp29
 70
     1
102
RTVSPost2010Prop30
280
     1
102
RTVSPost2010PropOp30
 70
     1
102
RTVSPost2010Prop31
280
     0
102
RTVSPost2010PropOp31
 70
     1
102
RTVSPost2010Prop32
280
     0
102
RTVSPost2010PropOp32
 70
     1
102
RTVSPost2010Prop33
280
     0
102
RTVSPost2010PropOp33
 70
     1
102
RTVSPost2010Prop34
280
     0
102
RTVSPost2010PropOp34
 70
     1
102
RTVSPost2010Prop35
280
     0
102
RTVSPost2010PropOp35
 70
     1
102
RTVSPost2010Prop36
280
     0
102
RTVSPost2010PropOp36
 70
     1
102
RTVSPost2010Prop37
 90
       50
102
RTVSPost2010PropOp37
 70
     1
102
RTVSPost2010Prop38
140
0.0
102
RTVSPost2010PropOp38
 70
     1
102
RTVSPost2010Prop39
140
1.0
102
RTVSPost2010PropOp39
 70
     1
102
RTVSPost2010Prop40
 90
        0
102
RTVSPost2010PropOp40
 70
     1
102
RTVSPost2010Prop41ColorIndex
 90
       18
102
RTVSPost2010Prop41ColorRGB
 90
        0
102
RTVSPost2010PropOp41
 70
     1
102
RTVSPost2010Prop42
 90
       50
102
RTVSPost2010PropOp42
 70
     1
102
RTVSPost2010Prop43
 90
        3
102
RTVSPost2010PropOp43
 70
     1
102
RTVSPost2010Prop44ColorIndex
 90
        5
102
RTVSPost2010Prop44ColorRGB
 90
      255
102
RTVSPost2010PropOp44
 70
     1
102
RTVSPost2010Prop45
280
     0
102
RTVSPost2010PropOp45
 70
     1
102
RTVSPost2010Prop46
 90
       50
102
RTVSPost2010PropOp46
 70
     1
102
RTVSPost2010Prop47
 90
       50
102
RTVSPost2010PropOp47
 70
     1
102
RTVSPost2010Prop48
 90
       50
102
RTVSPost2010PropOp48
 70
     1
102
RTVSPost2010Prop49
280
     0
102
RTVSPost2010PropOp49
 70
     1
102
RTVSPost2010Prop50
 90
       50
102
RTVSPost2010PropOp50
 70
     1
102
RTVSPost2010Prop51ColorIndex
 90
      256
102
RTVSPost2010Prop51ColorRGB
 90
-16777216
102
RTVSPost2010PropOp51
 70
     0
102
RTVSPost2010Prop52
140
1.0
102
RTVSPost2010PropOp52
 70
     0
102
RTVSPost2010Prop53
 90
        2
102
RTVSPost2010PropOp53
 70
     1
102
RTVSPost2010Prop54
  1
strokes_ogs.tif
102
RTVSPost2010PropOp54
 70
     1
102
RTVSPost2010Prop55
280
     0
102
RTVSPost2010PropOp55
 70
     1
102
RTVSPost2010Prop56
140
1.0
102
RTVSPost2010PropOp56
 70
     1
102
RTVSPost2010Prop57
140
1.0
102
RTVSPost2010PropOp57
 70
     1
102
RTVSPropertyOp0
 70
     1
102
RTVSPropertyOp1
 70
     1
102
RTVSPropertyOp2
 70
     1
102
RTVSPropertyOp3
 70
     1
102
RTVSPropertyOp4
 70
     1
102
RTVSPropertyOp5
 70
     1
102
RTVSPropertyOp6
 70
     1
102
RTVSPropertyOp7
 70
     1
102
RTVSPropertyOp8
 70
     1
102
RTVSPropertyOp9
 70
     1
102
RTVSPropertyOp10
 70
     1
102
RTVSPropertyOp11
 70
     1
102
RTVSPropertyOp12
 70
     1
102
RTVSPropertyOp13
 70
     1
102
RTVSPropertyOp14
 70
     1
102
RTVSPropertyOp15
 70
     1
102
RTVSPropertyOp16
 70
     1
102
RTVSPropertyOp17
 70
     1
102
RTVSPropertyOp18
 70
     1
102
RTVSPropertyOp19
 70
     1
102
RTVSPropertyOp20
 70
     1
102
RTVSPropertyOp21
 70
     1
102
RTVSPropertyOp22
 70
     1
102
RTVSPropertyOp23
 70
     1
102
RTVSPropertyOp24
 70
     1
102
RTVSPropertyOp25
 70
     1
102
RTVSPropertyOp26
 70
     1
102
RTVSPropertyOp27
 70
     1
102
RTVSPropertyOp28
 70
     1
102
RTVSPropertyOp29
 70
     1
102
RTVSPropertyOp30
 70
     1
102
RTVSPropertyOp31
 70
     1
102
RTVSPropertyOp32
 70
     1
102
RTVSPropertyOp33
 70
     1
102
RTVSPropertyOp34
 70
     1
102
RTVSPropertyOp35
 70
     1
102
RTVSPropertyOp36
 70
     1
102
RTVSPropertyOp37
 70
     1
102
RTVSPropertyOp38
 70
     1
102
RTVSPropertyOp39
 70
     1
102
RTVSPropertyOp40
 70
     1
102
RTVSPropertyOp41
 70
     1
102
RTVSPropertyOp42
 70
     1
102
RTVSPropertyOp43
 70
     1
102
RTVSPropertyOp44
 70
     1
102
RTVSPropertyOp45
 70
     1
102
RTVSPropertyOp46
 70
     1
102
RTVSPropertyOp47
 70
     1
102
RTVSPropertyOp48
 70
     1
102
RTVSPropertyOp49
 70
     1
102
RTVSPropertyOp50
 70
     1
102
RTVSPropertyOp51
 70
     0
102
RTVSPropertyOp52
 70
     0
102
RTVSPropertyOp53
 70
     1
102
RTVSPropertyOp54
 70
     1
102
RTVSPropertyOp55
 70
     1
102
RTVSPropertyOp56
 70
     1
102
RTVSPropertyOp57
 70
     1
102
RTVSPropertyOp58
 70
     1
102
RTVSPropertyOp59
 70
     1
102
RTVSPropertyOp60
 70
     1
102
RTVSPropertyOp61
 70
     1
102
RTVSPropertyOp62
 70
     1
  0
XRECORD
  5
25AE
102
{ACAD_REACTORS
330
25AD
102
}
330
25AD
100
AcDbXrecord
280
     1
102
RTVSPost2010Prop28
280
     0
102
RTVSPost2010PropOp28
 70
     1
102
RTVSPost2010Prop29
280
     1
102
RTVSPost2010PropOp29
 70
     1
102
RTVSPost2010Prop30
280
     1
102
RTVSPost2010PropOp30
 70
     1
102
RTVSPost2010Prop31
280
     0
102
RTVSPost2010PropOp31
 70
     1
102
RTVSPost2010Prop32
280
     0
102
RTVSPost2010PropOp32
 70
     1
102
RTVSPost2010Prop33
280
     0
102
RTVSPost2010PropOp33
 70
     1
102
RTVSPost2010Prop34
280
     0
102
RTVSPost2010PropOp34
 70
     1
102
RTVSPost2010Prop35
280
     0
102
RTVSPost2010PropOp35
 70
     1
102
RTVSPost2010Prop36
280
     0
102
RTVSPost2010PropOp36
 70
     1
102
RTVSPost2010Prop37
 90
       50
102
RTVSPost2010PropOp37
 70
     1
102
RTVSPost2010Prop38
140
0.0
102
RTVSPost2010PropOp38
 70
     1
102
RTVSPost2010Prop39
140
1.0
102
RTVSPost2010PropOp39
 70
     1
102
RTVSPost2010Prop40
 90
        0
102
RTVSPost2010PropOp40
 70
     1
102
RTVSPost2010Prop41ColorIndex
 90
       18
102
RTVSPost2010Prop41ColorRGB
 90
        0
102
RTVSPost2010PropOp41
 70
     1
102
RTVSPost2010Prop42
 90
       50
102
RTVSPost2010PropOp42
 70
     1
102
RTVSPost2010Prop43
 90
        3
102
RTVSPost2010PropOp43
 70
     1
102
RTVSPost2010Prop44ColorIndex
 90
        5
102
RTVSPost2010Prop44ColorRGB
 90
      255
102
RTVSPost2010PropOp44
 70
     1
102
RTVSPost2010Prop45
280
     0
102
RTVSPost2010PropOp45
 70
     1
102
RTVSPost2010Prop46
 90
       50
102
RTVSPost2010PropOp46
 70
     1
102
RTVSPost2010Prop47
 90
       50
102
RTVSPost2010PropOp47
 70
     1
102
RTVSPost2010Prop48
 90
       50
102
RTVSPost2010PropOp48
 70
     1
102
RTVSPost2010Prop49
280
     0
102
RTVSPost2010PropOp49
 70
     1
102
RTVSPost2010Prop50
 90
       50
102
RTVSPost2010PropOp50
 70
     1
102
RTVSPost2010Prop51ColorIndex
 90
      256
102
RTVSPost2010Prop51ColorRGB
 90
-16777216
102
RTVSPost2010PropOp51
 70
     0
102
RTVSPost2010Prop52
140
1.0
102
RTVSPost2010PropOp52
 70
     0
102
RTVSPost2010Prop53
 90
        2
102
RTVSPost2010PropOp53
 70
     1
102
RTVSPost2010Prop54
  1
strokes_ogs.tif
102
RTVSPost2010PropOp54
 70
     1
102
RTVSPost2010Prop55
280
     0
102
RTVSPost2010PropOp55
 70
     1
102
RTVSPost2010Prop56
140
1.0
102
RTVSPost2010PropOp56
 70
     1
102
RTVSPost2010Prop57
140
1.0
102
RTVSPost2010PropOp57
 70
     1
102
RTVSPropertyOp0
 70
     1
102
RTVSPropertyOp1
 70
     1
102
RTVSPropertyOp2
 70
     1
102
RTVSPropertyOp3
 70
     1
102
RTVSPropertyOp4
 70
     1
102
RTVSPropertyOp5
 70
     1
102
RTVSPropertyOp6
 70
     1
102
RTVSPropertyOp7
 70
     1
102
RTVSPropertyOp8
 70
     1
102
RTVSPropertyOp9
 70
     1
102
RTVSPropertyOp10
 70
     1
102
RTVSPropertyOp11
 70
     1
102
RTVSPropertyOp12
 70
     1
102
RTVSPropertyOp13
 70
     1
102
RTVSPropertyOp14
 70
     1
102
RTVSPropertyOp15
 70
     1
102
RTVSPropertyOp16
 70
     1
102
RTVSPropertyOp17
 70
     1
102
RTVSPropertyOp18
 70
     1
102
RTVSPropertyOp19
 70
     1
102
RTVSPropertyOp20
 70
     1
102
RTVSPropertyOp21
 70
     1
102
RTVSPropertyOp22
 70
     1
102
RTVSPropertyOp23
 70
     1
102
RTVSPropertyOp24
 70
     1
102
RTVSPropertyOp25
 70
     1
102
RTVSPropertyOp26
 70
     1
102
RTVSPropertyOp27
 70
     1
102
RTVSPropertyOp28
 70
     1
102
RTVSPropertyOp29
 70
     1
102
RTVSPropertyOp30
 70
     1
102
RTVSPropertyOp31
 70
     1
102
RTVSPropertyOp32
 70
     1
102
RTVSPropertyOp33
 70
     1
102
RTVSPropertyOp34
 70
     1
102
RTVSPropertyOp35
 70
     1
102
RTVSPropertyOp36
 70
     1
102
RTVSPropertyOp37
 70
     1
102
RTVSPropertyOp38
 70
     1
102
RTVSPropertyOp39
 70
     1
102
RTVSPropertyOp40
 70
     1
102
RTVSPropertyOp41
 70
     1
102
RTVSPropertyOp42
 70
     1
102
RTVSPropertyOp43
 70
     1
102
RTVSPropertyOp44
 70
     1
102
RTVSPropertyOp45
 70
     1
102
RTVSPropertyOp46
 70
     1
102
RTVSPropertyOp47
 70
     1
102
RTVSPropertyOp48
 70
     1
102
RTVSPropertyOp49
 70
     1
102
RTVSPropertyOp50
 70
     1
102
RTVSPropertyOp51
 70
     0
102
RTVSPropertyOp52
 70
     0
102
RTVSPropertyOp53
 70
     1
102
RTVSPropertyOp54
 70
     1
102
RTVSPropertyOp55
 70
     1
102
RTVSPropertyOp56
 70
     1
102
RTVSPropertyOp57
 70
     1
102
RTVSPropertyOp58
 70
     1
102
RTVSPropertyOp59
 70
     1
102
RTVSPropertyOp60
 70
     1
102
RTVSPropertyOp61
 70
     1
102
RTVSPropertyOp62
 70
     1
  0
XRECORD
  5
25AC
102
{ACAD_REACTORS
330
25AB
102
}
330
25AB
100
AcDbXrecord
280
     1
102
RTVSPost2010Prop28
280
     0
102
RTVSPost2010PropOp28
 70
     1
102
RTVSPost2010Prop29
280
     1
102
RTVSPost2010PropOp29
 70
     1
102
RTVSPost2010Prop30
280
     1
102
RTVSPost2010PropOp30
 70
     1
102
RTVSPost2010Prop31
280
     0
102
RTVSPost2010PropOp31
 70
     1
102
RTVSPost2010Prop32
280
     0
102
RTVSPost2010PropOp32
 70
     1
102
RTVSPost2010Prop33
280
     0
102
RTVSPost2010PropOp33
 70
     1
102
RTVSPost2010Prop34
280
     0
102
RTVSPost2010PropOp34
 70
     1
102
RTVSPost2010Prop35
280
     0
102
RTVSPost2010PropOp35
 70
     1
102
RTVSPost2010Prop36
280
     0
102
RTVSPost2010PropOp36
 70
     1
102
RTVSPost2010Prop37
 90
       50
102
RTVSPost2010PropOp37
 70
     1
102
RTVSPost2010Prop38
140
0.0
102
RTVSPost2010PropOp38
 70
     1
102
RTVSPost2010Prop39
140
1.0
102
RTVSPost2010PropOp39
 70
     1
102
RTVSPost2010Prop40
 90
        0
102
RTVSPost2010PropOp40
 70
     1
102
RTVSPost2010Prop41ColorIndex
 90
       18
102
RTVSPost2010Prop41ColorRGB
 90
        0
102
RTVSPost2010PropOp41
 70
     1
102
RTVSPost2010Prop42
 90
       50
102
RTVSPost2010PropOp42
 70
     1
102
RTVSPost2010Prop43
 90
        3
102
RTVSPost2010PropOp43
 70
     1
102
RTVSPost2010Prop44ColorIndex
 90
        5
102
RTVSPost2010Prop44ColorRGB
 90
      255
102
RTVSPost2010PropOp44
 70
     1
102
RTVSPost2010Prop45
280
     0
102
RTVSPost2010PropOp45
 70
     1
102
RTVSPost2010Prop46
 90
       50
102
RTVSPost2010PropOp46
 70
     1
102
RTVSPost2010Prop47
 90
       50
102
RTVSPost2010PropOp47
 70
     1
102
RTVSPost2010Prop48
 90
       50
102
RTVSPost2010PropOp48
 70
     1
102
RTVSPost2010Prop49
280
     0
102
RTVSPost2010PropOp49
 70
     1
102
RTVSPost2010Prop50
 90
       50
102
RTVSPost2010PropOp50
 70
     1
102
RTVSPost2010Prop51ColorIndex
 90
      256
102
RTVSPost2010Prop51ColorRGB
 90
-16777216
102
RTVSPost2010PropOp51
 70
     0
102
RTVSPost2010Prop52
140
1.0
102
RTVSPost2010PropOp52
 70
     0
102
RTVSPost2010Prop53
 90
        2
102
RTVSPost2010PropOp53
 70
     1
102
RTVSPost2010Prop54
  1
strokes_ogs.tif
102
RTVSPost2010PropOp54
 70
     1
102
RTVSPost2010Prop55
280
     0
102
RTVSPost2010PropOp55
 70
     1
102
RTVSPost2010Prop56
140
1.0
102
RTVSPost2010PropOp56
 70
     1
102
RTVSPost2010Prop57
140
1.0
102
RTVSPost2010PropOp57
 70
     1
102
RTVSPropertyOp0
 70
     1
102
RTVSPropertyOp1
 70
     1
102
RTVSPropertyOp2
 70
     1
102
RTVSPropertyOp3
 70
     1
102
RTVSPropertyOp4
 70
     1
102
RTVSPropertyOp5
 70
     1
102
RTVSPropertyOp6
 70
     1
102
RTVSPropertyOp7
 70
     1
102
RTVSPropertyOp8
 70
     1
102
RTVSPropertyOp9
 70
     1
102
RTVSPropertyOp10
 70
     1
102
RTVSPropertyOp11
 70
     1
102
RTVSPropertyOp12
 70
     1
102
RTVSPropertyOp13
 70
     1
102
RTVSPropertyOp14
 70
     1
102
RTVSPropertyOp15
 70
     1
102
RTVSPropertyOp16
 70
     1
102
RTVSPropertyOp17
 70
     1
102
RTVSPropertyOp18
 70
     1
102
RTVSPropertyOp19
 70
     1
102
RTVSPropertyOp20
 70
     1
102
RTVSPropertyOp21
 70
     1
102
RTVSPropertyOp22
 70
     1
102
RTVSPropertyOp23
 70
     1
102
RTVSPropertyOp24
 70
     1
102
RTVSPropertyOp25
 70
     1
102
RTVSPropertyOp26
 70
     1
102
RTVSPropertyOp27
 70
     1
102
RTVSPropertyOp28
 70
     1
102
RTVSPropertyOp29
 70
     1
102
RTVSPropertyOp30
 70
     1
102
RTVSPropertyOp31
 70
     1
102
RTVSPropertyOp32
 70
     1
102
RTVSPropertyOp33
 70
     1
102
RTVSPropertyOp34
 70
     1
102
RTVSPropertyOp35
 70
     1
102
RTVSPropertyOp36
 70
     1
102
RTVSPropertyOp37
 70
     1
102
RTVSPropertyOp38
 70
     1
102
RTVSPropertyOp39
 70
     1
102
RTVSPropertyOp40
 70
     1
102
RTVSPropertyOp41
 70
     1
102
RTVSPropertyOp42
 70
     1
102
RTVSPropertyOp43
 70
     1
102
RTVSPropertyOp44
 70
     1
102
RTVSPropertyOp45
 70
     1
102
RTVSPropertyOp46
 70
     1
102
RTVSPropertyOp47
 70
     1
102
RTVSPropertyOp48
 70
     1
102
RTVSPropertyOp49
 70
     1
102
RTVSPropertyOp50
 70
     1
102
RTVSPropertyOp51
 70
     0
102
RTVSPropertyOp52
 70
     0
102
RTVSPropertyOp53
 70
     1
102
RTVSPropertyOp54
 70
     1
102
RTVSPropertyOp55
 70
     1
102
RTVSPropertyOp56
 70
     1
102
RTVSPropertyOp57
 70
     1
102
RTVSPropertyOp58
 70
     1
102
RTVSPropertyOp59
 70
     1
102
RTVSPropertyOp60
 70
     1
102
RTVSPropertyOp61
 70
     1
102
RTVSPropertyOp62
 70
     1
  0
XRECORD
  5
25A6
102
{ACAD_REACTORS
330
25A5
102
}
330
25A5
100
AcDbXrecord
280
     1
102
RTVSPost2010Prop28
280
     0
102
RTVSPost2010PropOp28
 70
     1
102
RTVSPost2010Prop29
280
     1
102
RTVSPost2010PropOp29
 70
     1
102
RTVSPost2010Prop30
280
     1
102
RTVSPost2010PropOp30
 70
     1
102
RTVSPost2010Prop31
280
     0
102
RTVSPost2010PropOp31
 70
     1
102
RTVSPost2010Prop32
280
     0
102
RTVSPost2010PropOp32
 70
     1
102
RTVSPost2010Prop33
280
     0
102
RTVSPost2010PropOp33
 70
     1
102
RTVSPost2010Prop34
280
     0
102
RTVSPost2010PropOp34
 70
     1
102
RTVSPost2010Prop35
280
     0
102
RTVSPost2010PropOp35
 70
     1
102
RTVSPost2010Prop36
280
     0
102
RTVSPost2010PropOp36
 70
     1
102
RTVSPost2010Prop37
 90
       50
102
RTVSPost2010PropOp37
 70
     1
102
RTVSPost2010Prop38
140
0.0
102
RTVSPost2010PropOp38
 70
     1
102
RTVSPost2010Prop39
140
1.0
102
RTVSPost2010PropOp39
 70
     1
102
RTVSPost2010Prop40
 90
        0
102
RTVSPost2010PropOp40
 70
     1
102
RTVSPost2010Prop41ColorIndex
 90
       18
102
RTVSPost2010Prop41ColorRGB
 90
        0
102
RTVSPost2010PropOp41
 70
     1
102
RTVSPost2010Prop42
 90
       50
102
RTVSPost2010PropOp42
 70
     1
102
RTVSPost2010Prop43
 90
        3
102
RTVSPost2010PropOp43
 70
     1
102
RTVSPost2010Prop44ColorIndex
 90
        5
102
RTVSPost2010Prop44ColorRGB
 90
      255
102
RTVSPost2010PropOp44
 70
     1
102
RTVSPost2010Prop45
280
     0
102
RTVSPost2010PropOp45
 70
     1
102
RTVSPost2010Prop46
 90
       50
102
RTVSPost2010PropOp46
 70
     1
102
RTVSPost2010Prop47
 90
       50
102
RTVSPost2010PropOp47
 70
     1
102
RTVSPost2010Prop48
 90
       50
102
RTVSPost2010PropOp48
 70
     1
102
RTVSPost2010Prop49
280
     0
102
RTVSPost2010PropOp49
 70
     1
102
RTVSPost2010Prop50
 90
       50
102
RTVSPost2010PropOp50
 70
     1
102
RTVSPost2010Prop51ColorIndex
 90
      256
102
RTVSPost2010Prop51ColorRGB
 90
-16777216
102
RTVSPost2010PropOp51
 70
     0
102
RTVSPost2010Prop52
140
1.0
102
RTVSPost2010PropOp52
 70
     0
102
RTVSPost2010Prop53
 90
        2
102
RTVSPost2010PropOp53
 70
     1
102
RTVSPost2010Prop54
  1
strokes_ogs.tif
102
RTVSPost2010PropOp54
 70
     1
102
RTVSPost2010Prop55
280
     0
102
RTVSPost2010PropOp55
 70
     1
102
RTVSPost2010Prop56
140
1.0
102
RTVSPost2010PropOp56
 70
     1
102
RTVSPost2010Prop57
140
1.0
102
RTVSPost2010PropOp57
 70
     1
102
RTVSPropertyOp0
 70
     1
102
RTVSPropertyOp1
 70
     1
102
RTVSPropertyOp2
 70
     1
102
RTVSPropertyOp3
 70
     1
102
RTVSPropertyOp4
 70
     1
102
RTVSPropertyOp5
 70
     1
102
RTVSPropertyOp6
 70
     1
102
RTVSPropertyOp7
 70
     1
102
RTVSPropertyOp8
 70
     1
102
RTVSPropertyOp9
 70
     1
102
RTVSPropertyOp10
 70
     1
102
RTVSPropertyOp11
 70
     1
102
RTVSPropertyOp12
 70
     1
102
RTVSPropertyOp13
 70
     1
102
RTVSPropertyOp14
 70
     1
102
RTVSPropertyOp15
 70
     1
102
RTVSPropertyOp16
 70
     1
102
RTVSPropertyOp17
 70
     1
102
RTVSPropertyOp18
 70
     1
102
RTVSPropertyOp19
 70
     1
102
RTVSPropertyOp20
 70
     1
102
RTVSPropertyOp21
 70
     1
102
RTVSPropertyOp22
 70
     1
102
RTVSPropertyOp23
 70
     1
102
RTVSPropertyOp24
 70
     1
102
RTVSPropertyOp25
 70
     1
102
RTVSPropertyOp26
 70
     1
102
RTVSPropertyOp27
 70
     1
102
RTVSPropertyOp28
 70
     1
102
RTVSPropertyOp29
 70
     1
102
RTVSPropertyOp30
 70
     1
102
RTVSPropertyOp31
 70
     1
102
RTVSPropertyOp32
 70
     1
102
RTVSPropertyOp33
 70
     1
102
RTVSPropertyOp34
 70
     1
102
RTVSPropertyOp35
 70
     1
102
RTVSPropertyOp36
 70
     1
102
RTVSPropertyOp37
 70
     1
102
RTVSPropertyOp38
 70
     1
102
RTVSPropertyOp39
 70
     1
102
RTVSPropertyOp40
 70
     1
102
RTVSPropertyOp41
 70
     1
102
RTVSPropertyOp42
 70
     1
102
RTVSPropertyOp43
 70
     1
102
RTVSPropertyOp44
 70
     1
102
RTVSPropertyOp45
 70
     1
102
RTVSPropertyOp46
 70
     1
102
RTVSPropertyOp47
 70
     1
102
RTVSPropertyOp48
 70
     1
102
RTVSPropertyOp49
 70
     1
102
RTVSPropertyOp50
 70
     1
102
RTVSPropertyOp51
 70
     0
102
RTVSPropertyOp52
 70
     0
102
RTVSPropertyOp53
 70
     1
102
RTVSPropertyOp54
 70
     1
102
RTVSPropertyOp55
 70
     1
102
RTVSPropertyOp56
 70
     1
102
RTVSPropertyOp57
 70
     1
102
RTVSPropertyOp58
 70
     1
102
RTVSPropertyOp59
 70
     1
102
RTVSPropertyOp60
 70
     1
102
RTVSPropertyOp61
 70
     1
102
RTVSPropertyOp62
 70
     1
  0
XRECORD
  5
25A8
102
{ACAD_REACTORS
330
25A7
102
}
330
25A7
100
AcDbXrecord
280
     1
102
RTVSPost2010Prop28
280
     0
102
RTVSPost2010PropOp28
 70
     1
102
RTVSPost2010Prop29
280
     1
102
RTVSPost2010PropOp29
 70
     1
102
RTVSPost2010Prop30
280
     1
102
RTVSPost2010PropOp30
 70
     1
102
RTVSPost2010Prop31
280
     0
102
RTVSPost2010PropOp31
 70
     1
102
RTVSPost2010Prop32
280
     0
102
RTVSPost2010PropOp32
 70
     1
102
RTVSPost2010Prop33
280
     0
102
RTVSPost2010PropOp33
 70
     1
102
RTVSPost2010Prop34
280
     0
102
RTVSPost2010PropOp34
 70
     1
102
RTVSPost2010Prop35
280
     0
102
RTVSPost2010PropOp35
 70
     1
102
RTVSPost2010Prop36
280
     0
102
RTVSPost2010PropOp36
 70
     1
102
RTVSPost2010Prop37
 90
       50
102
RTVSPost2010PropOp37
 70
     1
102
RTVSPost2010Prop38
140
0.0
102
RTVSPost2010PropOp38
 70
     1
102
RTVSPost2010Prop39
140
1.0
102
RTVSPost2010PropOp39
 70
     1
102
RTVSPost2010Prop40
 90
        0
102
RTVSPost2010PropOp40
 70
     1
102
RTVSPost2010Prop41ColorIndex
 90
       18
102
RTVSPost2010Prop41ColorRGB
 90
        0
102
RTVSPost2010PropOp41
 70
     1
102
RTVSPost2010Prop42
 90
       50
102
RTVSPost2010PropOp42
 70
     1
102
RTVSPost2010Prop43
 90
        3
102
RTVSPost2010PropOp43
 70
     1
102
RTVSPost2010Prop44ColorIndex
 90
        5
102
RTVSPost2010Prop44ColorRGB
 90
      255
102
RTVSPost2010PropOp44
 70
     1
102
RTVSPost2010Prop45
280
     0
102
RTVSPost2010PropOp45
 70
     1
102
RTVSPost2010Prop46
 90
       50
102
RTVSPost2010PropOp46
 70
     1
102
RTVSPost2010Prop47
 90
       50
102
RTVSPost2010PropOp47
 70
     1
102
RTVSPost2010Prop48
 90
       50
102
RTVSPost2010PropOp48
 70
     1
102
RTVSPost2010Prop49
280
     0
102
RTVSPost2010PropOp49
 70
     1
102
RTVSPost2010Prop50
 90
       50
102
RTVSPost2010PropOp50
 70
     1
102
RTVSPost2010Prop51ColorIndex
 90
      256
102
RTVSPost2010Prop51ColorRGB
 90
-16777216
102
RTVSPost2010PropOp51
 70
     0
102
RTVSPost2010Prop52
140
1.0
102
RTVSPost2010PropOp52
 70
     0
102
RTVSPost2010Prop53
 90
        2
102
RTVSPost2010PropOp53
 70
     1
102
RTVSPost2010Prop54
  1
strokes_ogs.tif
102
RTVSPost2010PropOp54
 70
     1
102
RTVSPost2010Prop55
280
     0
102
RTVSPost2010PropOp55
 70
     1
102
RTVSPost2010Prop56
140
1.0
102
RTVSPost2010PropOp56
 70
     1
102
RTVSPost2010Prop57
140
1.0
102
RTVSPost2010PropOp57
 70
     1
102
RTVSPropertyOp0
 70
     1
102
RTVSPropertyOp1
 70
     1
102
RTVSPropertyOp2
 70
     1
102
RTVSPropertyOp3
 70
     1
102
RTVSPropertyOp4
 70
     1
102
RTVSPropertyOp5
 70
     1
102
RTVSPropertyOp6
 70
     1
102
RTVSPropertyOp7
 70
     1
102
RTVSPropertyOp8
 70
     1
102
RTVSPropertyOp9
 70
     1
102
RTVSPropertyOp10
 70
     1
102
RTVSPropertyOp11
 70
     1
102
RTVSPropertyOp12
 70
     1
102
RTVSPropertyOp13
 70
     1
102
RTVSPropertyOp14
 70
     1
102
RTVSPropertyOp15
 70
     1
102
RTVSPropertyOp16
 70
     1
102
RTVSPropertyOp17
 70
     1
102
RTVSPropertyOp18
 70
     1
102
RTVSPropertyOp19
 70
     1
102
RTVSPropertyOp20
 70
     1
102
RTVSPropertyOp21
 70
     1
102
RTVSPropertyOp22
 70
     1
102
RTVSPropertyOp23
 70
     1
102
RTVSPropertyOp24
 70
     1
102
RTVSPropertyOp25
 70
     1
102
RTVSPropertyOp26
 70
     1
102
RTVSPropertyOp27
 70
     1
102
RTVSPropertyOp28
 70
     1
102
RTVSPropertyOp29
 70
     1
102
RTVSPropertyOp30
 70
     1
102
RTVSPropertyOp31
 70
     1
102
RTVSPropertyOp32
 70
     1
102
RTVSPropertyOp33
 70
     1
102
RTVSPropertyOp34
 70
     1
102
RTVSPropertyOp35
 70
     1
102
RTVSPropertyOp36
 70
     1
102
RTVSPropertyOp37
 70
     1
102
RTVSPropertyOp38
 70
     1
102
RTVSPropertyOp39
 70
     1
102
RTVSPropertyOp40
 70
     1
102
RTVSPropertyOp41
 70
     1
102
RTVSPropertyOp42
 70
     1
102
RTVSPropertyOp43
 70
     1
102
RTVSPropertyOp44
 70
     1
102
RTVSPropertyOp45
 70
     1
102
RTVSPropertyOp46
 70
     1
102
RTVSPropertyOp47
 70
     1
102
RTVSPropertyOp48
 70
     1
102
RTVSPropertyOp49
 70
     1
102
RTVSPropertyOp50
 70
     1
102
RTVSPropertyOp51
 70
     0
102
RTVSPropertyOp52
 70
     0
102
RTVSPropertyOp53
 70
     1
102
RTVSPropertyOp54
 70
     1
102
RTVSPropertyOp55
 70
     1
102
RTVSPropertyOp56
 70
     1
102
RTVSPropertyOp57
 70
     1
102
RTVSPropertyOp58
 70
     1
102
RTVSPropertyOp59
 70
     1
102
RTVSPropertyOp60
 70
     1
102
RTVSPropertyOp61
 70
     1
102
RTVSPropertyOp62
 70
     1
  0
XRECORD
  5
259A
102
{ACAD_REACTORS
330
2599
102
}
330
2599
100
AcDbXrecord
280
     1
102
RTVSPost2010Prop28
280
     0
102
RTVSPost2010PropOp28
 70
     1
102
RTVSPost2010Prop29
280
     1
102
RTVSPost2010PropOp29
 70
     1
102
RTVSPost2010Prop30
280
     1
102
RTVSPost2010PropOp30
 70
     1
102
RTVSPost2010Prop31
280
     0
102
RTVSPost2010PropOp31
 70
     1
102
RTVSPost2010Prop32
280
     0
102
RTVSPost2010PropOp32
 70
     1
102
RTVSPost2010Prop33
280
     0
102
RTVSPost2010PropOp33
 70
     1
102
RTVSPost2010Prop34
280
     0
102
RTVSPost2010PropOp34
 70
     1
102
RTVSPost2010Prop35
280
     0
102
RTVSPost2010PropOp35
 70
     1
102
RTVSPost2010Prop36
280
     0
102
RTVSPost2010PropOp36
 70
     1
102
RTVSPost2010Prop37
 90
       50
102
RTVSPost2010PropOp37
 70
     1
102
RTVSPost2010Prop38
140
0.0
102
RTVSPost2010PropOp38
 70
     1
102
RTVSPost2010Prop39
140
1.0
102
RTVSPost2010PropOp39
 70
     1
102
RTVSPost2010Prop40
 90
        0
102
RTVSPost2010PropOp40
 70
     1
102
RTVSPost2010Prop41ColorIndex
 90
       18
102
RTVSPost2010Prop41ColorRGB
 90
        0
102
RTVSPost2010PropOp41
 70
     1
102
RTVSPost2010Prop42
 90
       50
102
RTVSPost2010PropOp42
 70
     1
102
RTVSPost2010Prop43
 90
        3
102
RTVSPost2010PropOp43
 70
     1
102
RTVSPost2010Prop44ColorIndex
 90
        5
102
RTVSPost2010Prop44ColorRGB
 90
      255
102
RTVSPost2010PropOp44
 70
     1
102
RTVSPost2010Prop45
280
     0
102
RTVSPost2010PropOp45
 70
     1
102
RTVSPost2010Prop46
 90
       50
102
RTVSPost2010PropOp46
 70
     1
102
RTVSPost2010Prop47
 90
       50
102
RTVSPost2010PropOp47
 70
     1
102
RTVSPost2010Prop48
 90
       50
102
RTVSPost2010PropOp48
 70
     1
102
RTVSPost2010Prop49
280
     0
102
RTVSPost2010PropOp49
 70
     1
102
RTVSPost2010Prop50
 90
       50
102
RTVSPost2010PropOp50
 70
     1
102
RTVSPost2010Prop51ColorIndex
 90
      256
102
RTVSPost2010Prop51ColorRGB
 90
-16777216
102
RTVSPost2010PropOp51
 70
     0
102
RTVSPost2010Prop52
140
1.0
102
RTVSPost2010PropOp52
 70
     0
102
RTVSPost2010Prop53
 90
        2
102
RTVSPost2010PropOp53
 70
     1
102
RTVSPost2010Prop54
  1
strokes_ogs.tif
102
RTVSPost2010PropOp54
 70
     1
102
RTVSPost2010Prop55
280
     0
102
RTVSPost2010PropOp55
 70
     1
102
RTVSPost2010Prop56
140
1.0
102
RTVSPost2010PropOp56
 70
     1
102
RTVSPost2010Prop57
140
1.0
102
RTVSPost2010PropOp57
 70
     1
102
RTVSPropertyOp0
 70
     1
102
RTVSPropertyOp1
 70
     1
102
RTVSPropertyOp2
 70
     1
102
RTVSPropertyOp3
 70
     1
102
RTVSPropertyOp4
 70
     1
102
RTVSPropertyOp5
 70
     1
102
RTVSPropertyOp6
 70
     1
102
RTVSPropertyOp7
 70
     1
102
RTVSPropertyOp8
 70
     1
102
RTVSPropertyOp9
 70
     1
102
RTVSPropertyOp10
 70
     1
102
RTVSPropertyOp11
 70
     1
102
RTVSPropertyOp12
 70
     1
102
RTVSPropertyOp13
 70
     1
102
RTVSPropertyOp14
 70
     1
102
RTVSPropertyOp15
 70
     1
102
RTVSPropertyOp16
 70
     1
102
RTVSPropertyOp17
 70
     1
102
RTVSPropertyOp18
 70
     1
102
RTVSPropertyOp19
 70
     1
102
RTVSPropertyOp20
 70
     1
102
RTVSPropertyOp21
 70
     1
102
RTVSPropertyOp22
 70
     1
102
RTVSPropertyOp23
 70
     1
102
RTVSPropertyOp24
 70
     1
102
RTVSPropertyOp25
 70
     1
102
RTVSPropertyOp26
 70
     1
102
RTVSPropertyOp27
 70
     1
102
RTVSPropertyOp28
 70
     1
102
RTVSPropertyOp29
 70
     1
102
RTVSPropertyOp30
 70
     1
102
RTVSPropertyOp31
 70
     1
102
RTVSPropertyOp32
 70
     1
102
RTVSPropertyOp33
 70
     1
102
RTVSPropertyOp34
 70
     1
102
RTVSPropertyOp35
 70
     1
102
RTVSPropertyOp36
 70
     1
102
RTVSPropertyOp37
 70
     1
102
RTVSPropertyOp38
 70
     1
102
RTVSPropertyOp39
 70
     1
102
RTVSPropertyOp40
 70
     1
102
RTVSPropertyOp41
 70
     1
102
RTVSPropertyOp42
 70
     1
102
RTVSPropertyOp43
 70
     1
102
RTVSPropertyOp44
 70
     1
102
RTVSPropertyOp45
 70
     1
102
RTVSPropertyOp46
 70
     1
102
RTVSPropertyOp47
 70
     1
102
RTVSPropertyOp48
 70
     1
102
RTVSPropertyOp49
 70
     1
102
RTVSPropertyOp50
 70
     1
102
RTVSPropertyOp51
 70
     0
102
RTVSPropertyOp52
 70
     0
102
RTVSPropertyOp53
 70
     1
102
RTVSPropertyOp54
 70
     1
102
RTVSPropertyOp55
 70
     1
102
RTVSPropertyOp56
 70
     1
102
RTVSPropertyOp57
 70
     1
102
RTVSPropertyOp58
 70
     1
102
RTVSPropertyOp59
 70
     1
102
RTVSPropertyOp60
 70
     1
102
RTVSPropertyOp61
 70
     1
102
RTVSPropertyOp62
 70
     1
  0
XRECORD
  5
25A2
102
{ACAD_REACTORS
330
25A1
102
}
330
25A1
100
AcDbXrecord
280
     1
102
RTVSPost2010Prop28
280
     0
102
RTVSPost2010PropOp28
 70
     1
102
RTVSPost2010Prop29
280
     1
102
RTVSPost2010PropOp29
 70
     1
102
RTVSPost2010Prop30
280
     1
102
RTVSPost2010PropOp30
 70
     1
102
RTVSPost2010Prop31
280
     0
102
RTVSPost2010PropOp31
 70
     1
102
RTVSPost2010Prop32
280
     0
102
RTVSPost2010PropOp32
 70
     1
102
RTVSPost2010Prop33
280
     0
102
RTVSPost2010PropOp33
 70
     1
102
RTVSPost2010Prop34
280
     0
102
RTVSPost2010PropOp34
 70
     1
102
RTVSPost2010Prop35
280
     0
102
RTVSPost2010PropOp35
 70
     1
102
RTVSPost2010Prop36
280
     0
102
RTVSPost2010PropOp36
 70
     1
102
RTVSPost2010Prop37
 90
       50
102
RTVSPost2010PropOp37
 70
     1
102
RTVSPost2010Prop38
140
0.0
102
RTVSPost2010PropOp38
 70
     1
102
RTVSPost2010Prop39
140
1.0
102
RTVSPost2010PropOp39
 70
     1
102
RTVSPost2010Prop40
 90
        0
102
RTVSPost2010PropOp40
 70
     1
102
RTVSPost2010Prop41ColorIndex
 90
       18
102
RTVSPost2010Prop41ColorRGB
 90
        0
102
RTVSPost2010PropOp41
 70
     1
102
RTVSPost2010Prop42
 90
       50
102
RTVSPost2010PropOp42
 70
     1
102
RTVSPost2010Prop43
 90
        3
102
RTVSPost2010PropOp43
 70
     1
102
RTVSPost2010Prop44ColorIndex
 90
        5
102
RTVSPost2010Prop44ColorRGB
 90
      255
102
RTVSPost2010PropOp44
 70
     1
102
RTVSPost2010Prop45
280
     0
102
RTVSPost2010PropOp45
 70
     1
102
RTVSPost2010Prop46
 90
       50
102
RTVSPost2010PropOp46
 70
     1
102
RTVSPost2010Prop47
 90
       50
102
RTVSPost2010PropOp47
 70
     1
102
RTVSPost2010Prop48
 90
       50
102
RTVSPost2010PropOp48
 70
     1
102
RTVSPost2010Prop49
280
     0
102
RTVSPost2010PropOp49
 70
     1
102
RTVSPost2010Prop50
 90
       50
102
RTVSPost2010PropOp50
 70
     1
102
RTVSPost2010Prop51ColorIndex
 90
      256
102
RTVSPost2010Prop51ColorRGB
 90
-16777216
102
RTVSPost2010PropOp51
 70
     0
102
RTVSPost2010Prop52
140
1.0
102
RTVSPost2010PropOp52
 70
     0
102
RTVSPost2010Prop53
 90
        2
102
RTVSPost2010PropOp53
 70
     1
102
RTVSPost2010Prop54
  1
strokes_ogs.tif
102
RTVSPost2010PropOp54
 70
     1
102
RTVSPost2010Prop55
280
     0
102
RTVSPost2010PropOp55
 70
     1
102
RTVSPost2010Prop56
140
1.0
102
RTVSPost2010PropOp56
 70
     1
102
RTVSPost2010Prop57
140
1.0
102
RTVSPost2010PropOp57
 70
     1
102
RTVSPropertyOp0
 70
     1
102
RTVSPropertyOp1
 70
     1
102
RTVSPropertyOp2
 70
     1
102
RTVSPropertyOp3
 70
     1
102
RTVSPropertyOp4
 70
     1
102
RTVSPropertyOp5
 70
     1
102
RTVSPropertyOp6
 70
     1
102
RTVSPropertyOp7
 70
     1
102
RTVSPropertyOp8
 70
     1
102
RTVSPropertyOp9
 70
     1
102
RTVSPropertyOp10
 70
     1
102
RTVSPropertyOp11
 70
     1
102
RTVSPropertyOp12
 70
     1
102
RTVSPropertyOp13
 70
     1
102
RTVSPropertyOp14
 70
     1
102
RTVSPropertyOp15
 70
     1
102
RTVSPropertyOp16
 70
     1
102
RTVSPropertyOp17
 70
     1
102
RTVSPropertyOp18
 70
     1
102
RTVSPropertyOp19
 70
     1
102
RTVSPropertyOp20
 70
     1
102
RTVSPropertyOp21
 70
     1
102
RTVSPropertyOp22
 70
     1
102
RTVSPropertyOp23
 70
     1
102
RTVSPropertyOp24
 70
     1
102
RTVSPropertyOp25
 70
     1
102
RTVSPropertyOp26
 70
     1
102
RTVSPropertyOp27
 70
     1
102
RTVSPropertyOp28
 70
     1
102
RTVSPropertyOp29
 70
     1
102
RTVSPropertyOp30
 70
     1
102
RTVSPropertyOp31
 70
     1
102
RTVSPropertyOp32
 70
     1
102
RTVSPropertyOp33
 70
     1
102
RTVSPropertyOp34
 70
     1
102
RTVSPropertyOp35
 70
     1
102
RTVSPropertyOp36
 70
     1
102
RTVSPropertyOp37
 70
     1
102
RTVSPropertyOp38
 70
     1
102
RTVSPropertyOp39
 70
     1
102
RTVSPropertyOp40
 70
     1
102
RTVSPropertyOp41
 70
     1
102
RTVSPropertyOp42
 70
     1
102
RTVSPropertyOp43
 70
     1
102
RTVSPropertyOp44
 70
     1
102
RTVSPropertyOp45
 70
     1
102
RTVSPropertyOp46
 70
     1
102
RTVSPropertyOp47
 70
     1
102
RTVSPropertyOp48
 70
     1
102
RTVSPropertyOp49
 70
     1
102
RTVSPropertyOp50
 70
     1
102
RTVSPropertyOp51
 70
     0
102
RTVSPropertyOp52
 70
     0
102
RTVSPropertyOp53
 70
     1
102
RTVSPropertyOp54
 70
     1
102
RTVSPropertyOp55
 70
     1
102
RTVSPropertyOp56
 70
     1
102
RTVSPropertyOp57
 70
     1
102
RTVSPropertyOp58
 70
     1
102
RTVSPropertyOp59
 70
     1
102
RTVSPropertyOp60
 70
     1
102
RTVSPropertyOp61
 70
     1
102
RTVSPropertyOp62
 70
     1
  0
XRECORD
  5
25AA
102
{ACAD_REACTORS
330
25A9
102
}
330
25A9
100
AcDbXrecord
280
     1
102
RTVSPost2010Prop28
280
     0
102
RTVSPost2010PropOp28
 70
     1
102
RTVSPost2010Prop29
280
     1
102
RTVSPost2010PropOp29
 70
     1
102
RTVSPost2010Prop30
280
     1
102
RTVSPost2010PropOp30
 70
     1
102
RTVSPost2010Prop31
280
     0
102
RTVSPost2010PropOp31
 70
     1
102
RTVSPost2010Prop32
280
     0
102
RTVSPost2010PropOp32
 70
     1
102
RTVSPost2010Prop33
280
     0
102
RTVSPost2010PropOp33
 70
     1
102
RTVSPost2010Prop34
280
     0
102
RTVSPost2010PropOp34
 70
     1
102
RTVSPost2010Prop35
280
     0
102
RTVSPost2010PropOp35
 70
     1
102
RTVSPost2010Prop36
280
     0
102
RTVSPost2010PropOp36
 70
     1
102
RTVSPost2010Prop37
 90
       50
102
RTVSPost2010PropOp37
 70
     1
102
RTVSPost2010Prop38
140
0.0
102
RTVSPost2010PropOp38
 70
     1
102
RTVSPost2010Prop39
140
1.0
102
RTVSPost2010PropOp39
 70
     1
102
RTVSPost2010Prop40
 90
        0
102
RTVSPost2010PropOp40
 70
     1
102
RTVSPost2010Prop41ColorIndex
 90
       18
102
RTVSPost2010Prop41ColorRGB
 90
        0
102
RTVSPost2010PropOp41
 70
     1
102
RTVSPost2010Prop42
 90
       50
102
RTVSPost2010PropOp42
 70
     1
102
RTVSPost2010Prop43
 90
        3
102
RTVSPost2010PropOp43
 70
     1
102
RTVSPost2010Prop44ColorIndex
 90
        5
102
RTVSPost2010Prop44ColorRGB
 90
      255
102
RTVSPost2010PropOp44
 70
     1
102
RTVSPost2010Prop45
280
     0
102
RTVSPost2010PropOp45
 70
     1
102
RTVSPost2010Prop46
 90
       50
102
RTVSPost2010PropOp46
 70
     1
102
RTVSPost2010Prop47
 90
       50
102
RTVSPost2010PropOp47
 70
     1
102
RTVSPost2010Prop48
 90
       50
102
RTVSPost2010PropOp48
 70
     1
102
RTVSPost2010Prop49
280
     0
102
RTVSPost2010PropOp49
 70
     1
102
RTVSPost2010Prop50
 90
       50
102
RTVSPost2010PropOp50
 70
     1
102
RTVSPost2010Prop51ColorIndex
 90
      256
102
RTVSPost2010Prop51ColorRGB
 90
-16777216
102
RTVSPost2010PropOp51
 70
     0
102
RTVSPost2010Prop52
140
1.0
102
RTVSPost2010PropOp52
 70
     0
102
RTVSPost2010Prop53
 90
        2
102
RTVSPost2010PropOp53
 70
     1
102
RTVSPost2010Prop54
  1
strokes_ogs.tif
102
RTVSPost2010PropOp54
 70
     1
102
RTVSPost2010Prop55
280
     0
102
RTVSPost2010PropOp55
 70
     1
102
RTVSPost2010Prop56
140
1.0
102
RTVSPost2010PropOp56
 70
     1
102
RTVSPost2010Prop57
140
1.0
102
RTVSPost2010PropOp57
 70
     1
102
RTVSPropertyOp0
 70
     1
102
RTVSPropertyOp1
 70
     1
102
RTVSPropertyOp2
 70
     1
102
RTVSPropertyOp3
 70
     1
102
RTVSPropertyOp4
 70
     1
102
RTVSPropertyOp5
 70
     1
102
RTVSPropertyOp6
 70
     1
102
RTVSPropertyOp7
 70
     1
102
RTVSPropertyOp8
 70
     1
102
RTVSPropertyOp9
 70
     1
102
RTVSPropertyOp10
 70
     1
102
RTVSPropertyOp11
 70
     1
102
RTVSPropertyOp12
 70
     1
102
RTVSPropertyOp13
 70
     1
102
RTVSPropertyOp14
 70
     1
102
RTVSPropertyOp15
 70
     1
102
RTVSPropertyOp16
 70
     1
102
RTVSPropertyOp17
 70
     1
102
RTVSPropertyOp18
 70
     1
102
RTVSPropertyOp19
 70
     1
102
RTVSPropertyOp20
 70
     1
102
RTVSPropertyOp21
 70
     1
102
RTVSPropertyOp22
 70
     1
102
RTVSPropertyOp23
 70
     1
102
RTVSPropertyOp24
 70
     1
102
RTVSPropertyOp25
 70
     1
102
RTVSPropertyOp26
 70
     1
102
RTVSPropertyOp27
 70
     1
102
RTVSPropertyOp28
 70
     1
102
RTVSPropertyOp29
 70
     1
102
RTVSPropertyOp30
 70
     1
102
RTVSPropertyOp31
 70
     1
102
RTVSPropertyOp32
 70
     1
102
RTVSPropertyOp33
 70
     1
102
RTVSPropertyOp34
 70
     1
102
RTVSPropertyOp35
 70
     1
102
RTVSPropertyOp36
 70
     1
102
RTVSPropertyOp37
 70
     1
102
RTVSPropertyOp38
 70
     1
102
RTVSPropertyOp39
 70
     1
102
RTVSPropertyOp40
 70
     1
102
RTVSPropertyOp41
 70
     1
102
RTVSPropertyOp42
 70
     1
102
RTVSPropertyOp43
 70
     1
102
RTVSPropertyOp44
 70
     1
102
RTVSPropertyOp45
 70
     1
102
RTVSPropertyOp46
 70
     1
102
RTVSPropertyOp47
 70
     1
102
RTVSPropertyOp48
 70
     1
102
RTVSPropertyOp49
 70
     1
102
RTVSPropertyOp50
 70
     1
102
RTVSPropertyOp51
 70
     0
102
RTVSPropertyOp52
 70
     0
102
RTVSPropertyOp53
 70
     1
102
RTVSPropertyOp54
 70
     1
102
RTVSPropertyOp55
 70
     1
102
RTVSPropertyOp56
 70
     1
102
RTVSPropertyOp57
 70
     1
102
RTVSPropertyOp58
 70
     1
102
RTVSPropertyOp59
 70
     1
102
RTVSPropertyOp60
 70
     1
102
RTVSPropertyOp61
 70
     1
102
RTVSPropertyOp62
 70
     1
  0
ENDSEC
  0
EOF
