  0
SECTION
  2
HEADER
  9
$ACADVER
  1
AC1021
  9
$ACADMAINTVER
 70
    50
  9
$DWGCODEPAGE
  3
ANSI_932
  9
$LASTSAVEDBY
  1
DDK114935
  9
$INSBASE
 10
0.0
 20
0.0
 30
0.0
  9
$EXTMIN
 10
8.185906069999454
 20
2.469101363938058
 30
0.0
  9
$EXTMAX
 10
107.742254455446
 20
47.09868552749745
 30
0.0
  9
$LIMMIN
 10
0.0
 20
0.0
  9
$LIMMAX
 10
420.0
 20
297.0
  9
$ORTHOMODE
 70
     0
  9
$REGENMODE
 70
     1
  9
$FILLMODE
 70
     1
  9
$QTEXTMODE
 70
     0
  9
$MIRRTEXT
 70
     0
  9
$LTSCALE
 40
1.0
  9
$ATTMODE
 70
     1
  9
$TEXTSIZE
 40
3.0
  9
$TRACEWID
 40
1.0
  9
$TEXTSTYLE
  7
STANDARD
  9
$CLAYER
  8
0
  9
$CELTYPE
  6
ByLayer
  9
$CECOLOR
 62
   256
  9
$CELTSCALE
 40
1.0
  9
$DISPSILH
 70
     0
  9
$DIMSCALE
 40
1.0
  9
$DIMASZ
 40
2.5
  9
$DIMEXO
 40
1.0
  9
$DIMDLI
 40
10.0
  9
$DIMRND
 40
0.0
  9
$DIMDLE
 40
0.0
  9
$DIMEXE
 40
1.0
  9
$DIMTP
 40
0.1
  9
$DIMTM
 40
0.1000000001
  9
$DIMTXT
 40
2.5
  9
$DIMCEN
 40
0.0
  9
$DIMTSZ
 40
0.0
  9
$DIMTOL
 70
     0
  9
$DIMLIM
 70
     0
  9
$DIMTIH
 70
     0
  9
$DIMTOH
 70
     0
  9
$DIMSE1
 70
     0
  9
$DIMSE2
 70
     0
  9
$DIMTAD
 70
     3
  9
$DIMZIN
 70
     8
  9
$DIMBLK
  1
Open30
  9
$DIMASO
 70
     1
  9
$DIMSHO
 70
     1
  9
$DIMPOST
  1

  9
$DIMAPOST
  1
"
  9
$DIMALT
 70
     0
  9
$DIMALTD
 70
     2
  9
$DIMALTF
 40
0.0393701
  9
$DIMLFAC
 40
1.0
  9
$DIMTOFL
 70
     1
  9
$DIMTVP
 40
0.0
  9
$DIMTIX
 70
     0
  9
$DIMSOXD
 70
     0
  9
$DIMSAH
 70
     0
  9
$DIMBLK1
  1

  9
$DIMBLK2
  1

  9
$DIMSTYLE
  2
AM_JIS
  9
$DIMCLRD
 70
   256
  9
$DIMCLRE
 70
   256
  9
$DIMCLRT
 70
     7
  9
$DIMTFAC
 40
0.71
  9
$DIMGAP
 40
1.0
  9
$DIMJUST
 70
     0
  9
$DIMSD1
 70
     0
  9
$DIMSD2
 70
     0
  9
$DIMTOLJ
 70
     0
  9
$DIMTZIN
 70
     8
  9
$DIMALTZ
 70
     0
  9
$DIMALTTZ
 70
     0
  9
$DIMUPT
 70
     0
  9
$DIMDEC
 70
     2
  9
$DIMTDEC
 70
     2
  9
$DIMALTU
 70
     2
  9
$DIMALTTD
 70
     2
  9
$DIMTXSTY
  7
STANDARD
  9
$DIMAUNIT
 70
     0
  9
$DIMADEC
 70
     0
  9
$DIMALTRND
 40
0.0
  9
$DIMAZIN
 70
     2
  9
$DIMDSEP
 70
    46
  9
$DIMATFIT
 70
     3
  9
$DIMFRAC
 70
     0
  9
$DIMLDRBLK
  1
Open30
  9
$DIMLUNIT
 70
     2
  9
$DIMLWD
 70
    -1
  9
$DIMLWE
 70
    -1
  9
$DIMTMOVE
 70
     0
  9
$DIMFXL
 40
1.0
  9
$DIMFXLON
 70
     0
  9
$DIMJOGANG
 40
0.7853981633974483
  9
$DIMTFILL
 70
     0
  9
$DIMTFILLCLR
 70
     0
  9
$DIMARCSYM
 70
     1
  9
$DIMLTYPE
  6

  9
$DIMLTEX1
  6

  9
$DIMLTEX2
  6

  9
$LUNITS
 70
     2
  9
$LUPREC
 70
     2
  9
$SKETCHINC
 40
1.0
  9
$FILLETRAD
 40
2.5
  9
$AUNITS
 70
     0
  9
$AUPREC
 70
     3
  9
$MENU
  1
.
  9
$ELEVATION
 40
0.0
  9
$PELEVATION
 40
0.0
  9
$THICKNESS
 40
0.0
  9
$LIMCHECK
 70
     0
  9
$CHAMFERA
 40
2.5
  9
$CHAMFERB
 40
2.5
  9
$CHAMFERC
 40
0.0
  9
$CHAMFERD
 40
0.0
  9
$SKPOLY
 70
     0
  9
$TDCREATE
 40
2459366.638406887
  9
$TDUCREATE
 40
2459366.263406887
  9
$TDUPDATE
 40
2459366.675606343
  9
$TDUUPDATE
 40
2459366.300606343
  9
$TDINDWG
 40
0.0036155671
  9
$TDUSRTIMER
 40
0.0036146528
  9
$USRTIMER
 70
     1
  9
$ANGBASE
 50
0.0
  9
$ANGDIR
 70
     0
  9
$PDMODE
 70
     0
  9
$PDSIZE
 40
0.0
  9
$PLINEWID
 40
0.0
  9
$SPLFRAME
 70
     0
  9
$SPLINETYPE
 70
     6
  9
$SPLINESEGS
 70
     8
  9
$HANDSEED
  5
2727
  9
$SURFTAB1
 70
     6
  9
$SURFTAB2
 70
     6
  9
$SURFTYPE
 70
     6
  9
$SURFU
 70
     6
  9
$SURFV
 70
     6
  9
$UCSBASE
  2

  9
$UCSNAME
  2

  9
$UCSORG
 10
0.0
 20
0.0
 30
0.0
  9
$UCSXDIR
 10
1.0
 20
0.0
 30
0.0
  9
$UCSYDIR
 10
0.0
 20
1.0
 30
0.0
  9
$UCSORTHOREF
  2

  9
$UCSORTHOVIEW
 70
     0
  9
$UCSORGTOP
 10
0.0
 20
0.0
 30
0.0
  9
$UCSORGBOTTOM
 10
0.0
 20
0.0
 30
0.0
  9
$UCSORGLEFT
 10
0.0
 20
0.0
 30
0.0
  9
$UCSORGRIGHT
 10
0.0
 20
0.0
 30
0.0
  9
$UCSORGFRONT
 10
0.0
 20
0.0
 30
0.0
  9
$UCSORGBACK
 10
0.0
 20
0.0
 30
0.0
  9
$PUCSBASE
  2

  9
$PUCSNAME
  2

  9
$PUCSORG
 10
0.0
 20
0.0
 30
0.0
  9
$PUCSXDIR
 10
1.0
 20
0.0
 30
0.0
  9
$PUCSYDIR
 10
0.0
 20
1.0
 30
0.0
  9
$PUCSORTHOREF
  2

  9
$PUCSORTHOVIEW
 70
     0
  9
$PUCSORGTOP
 10
0.0
 20
0.0
 30
0.0
  9
$PUCSORGBOTTOM
 10
0.0
 20
0.0
 30
0.0
  9
$PUCSORGLEFT
 10
0.0
 20
0.0
 30
0.0
  9
$PUCSORGRIGHT
 10
0.0
 20
0.0
 30
0.0
  9
$PUCSORGFRONT
 10
0.0
 20
0.0
 30
0.0
  9
$PUCSORGBACK
 10
0.0
 20
0.0
 30
0.0
  9
$USERI1
 70
     0
  9
$USERI2
 70
     0
  9
$USERI3
 70
     0
  9
$USERI4
 70
     0
  9
$USERI5
 70
     0
  9
$USERR1
 40
0.0
  9
$USERR2
 40
0.0
  9
$USERR3
 40
0.0
  9
$USERR4
 40
0.0
  9
$USERR5
 40
0.0
  9
$WORLDVIEW
 70
     1
  9
$SHADEDGE
 70
     3
  9
$SHADEDIF
 70
    70
  9
$TILEMODE
 70
     1
  9
$MAXACTVP
 70
    64
  9
$PINSBASE
 10
0.0
 20
0.0
 30
0.0
  9
$PLIMCHECK
 70
     0
  9
$PEXTMIN
 10
1.000000000000000E+20
 20
1.000000000000000E+20
 30
1.000000000000000E+20
  9
$PEXTMAX
 10
-1.000000000000000E+20
 20
-1.000000000000000E+20
 30
-1.000000000000000E+20
  9
$PLIMMIN
 10
0.0
 20
0.0
  9
$PLIMMAX
 10
420.0
 20
297.0
  9
$UNITMODE
 70
     0
  9
$VISRETAIN
 70
     1
  9
$PLINEGEN
 70
     0
  9
$PSLTSCALE
 70
     1
  9
$TREEDEPTH
 70
  3020
  9
$CMLSTYLE
  2
Standard
  9
$CMLJUST
 70
     0
  9
$CMLSCALE
 40
20.0
  9
$PROXYGRAPHICS
 70
     1
  9
$MEASUREMENT
 70
     1
  9
$CELWEIGHT
370
    -1
  9
$ENDCAPS
280
     0
  9
$JOINSTYLE
280
     0
  9
$LWDISPLAY
290
     0
  9
$INSUNITS
 70
     4
  9
$HYPERLINKBASE
  1

  9
$STYLESHEET
  1
MONOCHROME.CTB
  9
$XEDIT
290
     1
  9
$CEPSNTYPE
380
     0
  9
$PSTYLEMODE
290
     1
  9
$FINGERPRINTGUID
  2
{CBAD67C3-F7C4-434F-BEC1-08CE9B004BC2}
  9
$VERSIONGUID
  2
{C9571758-B6BB-41E8-AE3C-9D05C46003F5}
  9
$EXTNAMES
290
     1
  9
$PSVPSCALE
 40
0.0
  9
$OLESTARTUP
290
     0
  9
$SORTENTS
280
   127
  9
$INDEXCTL
280
     0
  9
$HIDETEXT
280
     1
  9
$XCLIPFRAME
290
     0
  9
$HALOGAP
280
     0
  9
$OBSCOLOR
 70
   257
  9
$OBSLTYPE
280
     0
  9
$INTERSECTIONDISPLAY
280
     0
  9
$INTERSECTIONCOLOR
 70
   257
  9
$DIMASSOC
280
     2
  9
$PROJECTNAME
  1

  9
$CAMERADISPLAY
290
     0
  9
$LENSLENGTH
 40
50.0
  9
$CAMERAHEIGHT
 40
0.0
  9
$STEPSPERSEC
 40
2.0
  9
$STEPSIZE
 40
6.0
  9
$3DDWFPREC
 40
2.0
  9
$PSOLWIDTH
 40
0.25
  9
$PSOLHEIGHT
 40
4.0
  9
$LOFTANG1
 40
1.570796326794896
  9
$LOFTANG2
 40
1.570796326794896
  9
$LOFTMAG1
 40
0.0
  9
$LOFTMAG2
 40
0.0
  9
$LOFTPARAM
 70
     7
  9
$LOFTNORMALS
280
     1
  9
$LATITUDE
 40
37.795
  9
$LONGITUDE
 40
-122.394
  9
$NORTHDIRECTION
 40
0.0
  9
$TIMEZONE
 70
 -8000
  9
$LIGHTGLYPHDISPLAY
280
     1
  9
$TILEMODELIGHTSYNCH
280
     1
  9
$CMATERIAL
347
9BC
  9
$SOLIDHIST
280
     1
  9
$SHOWHIST
280
     1
  9
$DWFFRAME
280
     2
  9
$DGNFRAME
280
     0
  9
$REALWORLDSCALE
290
     1
  9
$INTERFERECOLOR
 62
     1
  9
$INTERFEREOBJVS
345
9C9
  9
$INTERFEREVPVS
346
2169
  9
$CSHADOW
280
     0
  9
$SHADOWPLANELOCATION
 40
0.0
  0
ENDSEC
  0
SECTION
  2
CLASSES
  0
CLASS
  1
ACDBDICTIONARYWDFLT
  2
AcDbDictionaryWithDefault
  3
ObjectDBX Classes
 90
        0
 91
        1
280
     0
281
     0
  0
CLASS
  1
TABLESTYLE
  2
AcDbTableStyle
  3
ObjectDBX Classes
 90
     4095
 91
        1
280
     0
281
     0
  0
CLASS
  1
AMGSETTINGSOBJ
  2
AmgSettingsObj
  3
"AcadM|Product Description: AutoCAD Mechanical|Company: Autodesk, Inc."
 90
     1024
 91
        2
280
     0
281
     0
  0
CLASS
  1
ACME_DOCUMENT
  2
AcMeDbDoc
  3
AcMeServices
 90
     1024
 91
        1
280
     0
281
     0
  0
CLASS
  1
ACMESCOPE
  2
AcMeScope
  3
AcMeServices
 90
     1024
 91
        1
280
     0
281
     0
  0
CLASS
  1
ACMECOMMANDHISTORY
  2
AcMeCommandHistory
  3
AcMeServices
 90
     1024
 91
        1
280
     0
281
     0
  0
CLASS
  1
ACIMSYSVARMAN
  2
AcImSysVarManager
  3
AcMeServices
 90
     1024
 91
        3
280
     0
281
     0
  0
CLASS
  1
ACIMINTSYSVAR
  2
AcImIntSysVar
  3
AcMeServices
 90
     1024
 91
        2
280
     0
281
     0
  0
CLASS
  1
ACMEDRAWINGMAN
  2
AcMeDrawingMan
  3
AcMeServices
 90
     1024
 91
        0
280
     0
281
     0
  0
CLASS
  1
ACMEVIEW
  2
AcMeView
  3
AcMeServices
 90
     1024
 91
        0
280
     0
281
     0
  0
CLASS
  1
ACDBENTITYCACHE
  2
AcMeEntityCache
  3
AcMeServices
 90
     1024
 91
        1
280
     0
281
     0
  0
CLASS
  1
GSMANAGER
  2
AcMeGSManager
  3
AcMeServices
 90
        0
 91
        0
280
     0
281
     0
  0
CLASS
  1
AMDTINTERNALREACTOR
  2
AmdtInternalReactor
  3
AcMeServices
 90
     1024
 91
        0
280
     0
281
     0
  0
CLASS
  1
ACMESTATEMGR
  2
AcMeStateMgr
  3
AcMeServices
 90
     1024
 91
        1
280
     0
281
     0
  0
CLASS
  1
ACGREFMASTER
  2
AcGrefMaster
  3
AcAttribServices
 90
     1024
 91
        1
280
     0
281
     0
  0
CLASS
  1
AM_DRAWING_MGR
  2
AcDmDwgMgr
  3
AcMechDwgViewMgmt
 90
     1024
 91
        0
280
     0
281
     0
  0
CLASS
  1
AM_DWG_DOCUMENT
  2
AcDmDwgDocument
  3
AcMechDwgViewMgmt
 90
     1024
 91
        0
280
     0
281
     0
  0
CLASS
  1
AM_DWG_SHEET
  2
AcDmSheet
  3
AcMechDwgViewMgmt
 90
     1024
 91
        0
280
     0
281
     0
  0
CLASS
  1
AM_VIEWDIMPARMAP
  2
AcDmViewDimParMap
  3
AcMechDwgViewMgmt
 90
     1024
 91
        0
280
     0
281
     0
  0
CLASS
  1
ACIMREALSYSVAR
  2
AcImRealSysVar
  3
AcMeServices
 90
     1024
 91
        0
280
     0
281
     0
  0
CLASS
  1
AM_DWGMGR_NAME
  2
AcDmDwgMgrName
  3
AcMechDwgViewMgmt
 90
     1024
 91
        0
280
     0
281
     0
  0
CLASS
  1
ACME_DATABASE
  2
AcMeDbDatabase
  3
AcMeServices
 90
     1024
 91
        2
280
     0
281
     0
  0
CLASS
  1
ACRFINSADJUSTERMGR
  2
AcRfInsAdjusterMgr
  3
AcMeServices
 90
     1024
 91
        1
280
     0
281
     0
  0
CLASS
  1
ACGREFACADMASTER
  2
AcGrefacadMaster
  3
AcGrefServices
 90
     1024
 91
        1
280
     0
281
     0
  0
CLASS
  1
AMDTMENUSTATEMGR
  2
AmdtMenuStateMgr
  3
McadcomServices
 90
     1024
 91
        1
280
     0
281
     0
  0
CLASS
  1
AMDTMCOMMENUSTATE
  2
AmdtMcomMenuState
  3
McadcomServices
 90
     1024
 91
        1
280
     0
281
     0
  0
CLASS
  1
AMIMASTER
  2
AmiMaster
  3
AmiServices
 90
     1024
 91
        1
280
     0
281
     0
  0
CLASS
  1
MAPIAMMOUDLE
  2
MApiAmModule
  3
MApiAmServices
 90
     1024
 91
        1
280
     0
281
     0
  0
CLASS
  1
ACIMSTRSYSVAR
  2
AcImStrSysVar
  3
AcMeServices
 90
     1024
 91
        5
280
     0
281
     0
  0
CLASS
  1
AMDTADMENUSTATE
  2
AmdtAdMenuState
  3
DesignerServices
 90
        0
 91
        0
280
     0
281
     0
  0
CLASS
  1
ADAPPL
  2
AcAdAppl
  3
DesignerAssemblies
 90
     1024
 91
        0
280
     0
281
     0
  0
CLASS
  1
DEPMGR
  2
AcAdDepMgr
  3
DesignerAssemblies
 90
     1024
 91
        0
280
     0
281
     0
  0
CLASS
  1
PARAMMGR
  2
AcAdParamMgr
  3
DesignerAssemblies
 90
     1024
 91
        0
280
     0
281
     0
  0
CLASS
  1
PARAMSCOPE
  2
AcAdParamScope
  3
DesignerAssemblies
 90
     1024
 91
        0
280
     0
281
     0
  0
CLASS
  1
NAMEDAPPL
  2
AcAdNamedAppl
  3
DesignerAssemblies
 90
     1024
 91
        0
280
     0
281
     0
  0
CLASS
  1
AMDTDMMENUSTATE
  2
AmdtDmMenuState
  3
AcMechDwgViewMgmt
 90
        0
 91
        0
280
     0
281
     0
  0
CLASS
  1
AMDTAMMENUSTATE
  2
AmdtAmMenuState
  3
DesignerAssemblies
 90
     1024
 91
        1
280
     0
281
     0
  0
CLASS
  1
ACAMPROJECT
  2
AcAmProject
  3
DesignerAssemblies
 90
     1024
 91
        1
280
     0
281
     0
  0
CLASS
  1
ACAMGRCOMPDEF
  2
AcAmGrCompDef
  3
DesignerAssemblies
 90
     1024
 91
        1
280
     0
281
     0
  0
CLASS
  1
ACCMCONTEXT
  2
AcCmContext
  3
DesignerAssemblies
 90
     1024
 91
        0
280
     0
281
     0
  0
CLASS
  1
ACAMCOMPDEF
  2
AcAmCompDef
  3
DesignerAssemblies
 90
     1024
 91
        1
280
     0
281
     0
  0
CLASS
  1
ACAMCOMPDEFMGR
  2
AcAmCompDefMgr
  3
DesignerAssemblies
 90
     1024
 91
        1
280
     0
281
     0
  0
CLASS
  1
AMCONTEXTMGR
  2
AcAmContextMgr
  3
DesignerAssemblies
 90
     1024
 91
        1
280
     0
281
     0
  0
CLASS
  1
ACAMCONTEXTMODELER
  2
AcAmContextModeler
  3
DesignerAssemblies
 90
     1024
 91
        1
280
     0
281
     0
  0
CLASS
  1
ACMDATADICTIONARY
  2
AcmDataDictionary
  3
"AcmSymBB|Product Description: AutoCAD Mechanical|Company: Autodesk, Inc."
 90
     1024
 91
        1
280
     0
281
     0
  0
CLASS
  1
ACMSTANDARDISO
  2
AcmStandardISO
  3
"Amdt_StdImp|Product Description: AutoCAD Mechanical|Company: Autodesk, Inc."
 90
     1024
 91
        1
280
     0
281
     0
  0
CLASS
  1
AMGOBJPROPCFG
  2
AmgObjPropCfg
  3
"AmgLay|Product Description: AutoCAD Mechanical|Company: Autodesk, Inc."
 90
     1024
 91
        1
280
     0
281
     0
  0
CLASS
  1
AMDTEDGESTANDARDISO13715
  2
AmdtEdgeStdISO13715
  3
"Amdt_StdImp|Product Description: AutoCAD Mechanical|Company: Autodesk, Inc."
 90
     1024
 91
        1
280
     0
281
     0
  0
CLASS
  1
ACMSURFSTANDARDISO
  2
AcmSurfTextStdISO
  3
"Amdt_StdImp|Product Description: AutoCAD Mechanical|Company: Autodesk, Inc."
 90
     1024
 91
        0
280
     0
281
     0
  0
CLASS
  1
ACMFCFSTANDARDISO
  2
AcmFCFStdISO
  3
"Amdt_StdImp|Product Description: AutoCAD Mechanical|Company: Autodesk, Inc."
 90
     1024
 91
        0
280
     0
281
     0
  0
CLASS
  1
ACMWELDSTANDARDISO
  2
AcmWeldingStdISO
  3
"Amdt_StdImp|Product Description: AutoCAD Mechanical|Company: Autodesk, Inc."
 90
     1024
 91
        1
280
     0
281
     0
  0
CLASS
  1
ACMIDSTANDARDISO
  2
AcmIdStdISO
  3
"Amdt_StdImp|Product Description: AutoCAD Mechanical|Company: Autodesk, Inc."
 90
     1024
 91
        0
280
     0
281
     0
  0
CLASS
  1
ACMDATUMSTANDARDISO
  2
AcmDatumStdISO
  3
"Amdt_StdImp|Product Description: AutoCAD Mechanical|Company: Autodesk, Inc."
 90
     1024
 91
        0
280
     0
281
     0
  0
CLASS
  1
ACMBOMSTANDARDISO
  2
AcmBOMStdISO
  3
"Amdt_StdImp|Product Description: AutoCAD Mechanical|Company: Autodesk, Inc."
 90
     1024
 91
        1
280
     0
281
     0
  0
CLASS
  1
ACMDETAILSTANDARDISO
  2
AmdtDetailSymStdISO
  3
"Amdt_StdImp|Product Description: AutoCAD Mechanical|Company: Autodesk, Inc."
 90
     1024
 91
        1
280
     0
281
     0
  0
CLASS
  1
ACMSECTIONSTANDARDISO
  2
AmdtSectionSymStdISO
  3
"Amdt_StdImp|Product Description: AutoCAD Mechanical|Company: Autodesk, Inc."
 90
     1024
 91
        0
280
     0
281
     0
  0
CLASS
  1
ACMCENTERLINESTANDARDISO
  2
AmdtCenterLineStdISO
  3
"Amdt_StdImp|Product Description: AutoCAD Mechanical|Company: Autodesk, Inc."
 90
     1024
 91
        1
280
     0
281
     0
  0
CLASS
  1
ACMTHREADLINESTANDARDISO
  2
AmdtThreadLineStdISO
  3
"Amdt_StdImp|Product Description: AutoCAD Mechanical|Company: Autodesk, Inc."
 90
     1024
 91
        1
280
     0
281
     0
  0
CLASS
  1
ACMNOTESTANDARDISO
  2
AmdtNoteStdISO
  3
"Amdt_StdImp|Product Description: AutoCAD Mechanical|Company: Autodesk, Inc."
 90
     1024
 91
        1
280
     0
281
     0
  0
CLASS
  1
AMDTNOTETEMPLATEDB
  2
AmdtNoteTemplateDB
  3
AcmSymBB|Product Description: AutoCAD Mechanical|Company: Autodesk, Inc.
 90
     1024
 91
       13
280
     0
281
     0
  0
CLASS
  1
ACAMGLAYSTD
  2
AcAmgLayStd
  3
"AmgLay|Product Description: AutoCAD Mechanical|Company: Autodesk, Inc."
 90
     1024
 91
        2
280
     0
281
     0
  0
CLASS
  1
ACAMGDIMSTD
  2
AcAmgDimStd
  3
"AmgDim|Product Description: AutoCAD Mechanical|Company: Autodesk, Inc."
 90
     1024
 91
        2
280
     0
281
     0
  0
CLASS
  1
ACAMGHOLECHARTSTDISO
  2
AcAmgHoleChartStdISO
  3
AmgDim|Product Description: AutoCAD Mechanical|Company: Autodesk, Inc.
 90
     1024
 91
        1
280
     0
281
     0
  0
CLASS
  1
ACAMGTITLESTD
  2
AcAmgTitleStd
  3
"AmgTitle|Product Description: AutoCAD Mechanical|Company: Autodesk, Inc."
 90
     1024
 91
        2
280
     0
281
     0
  0
CLASS
  1
CATALOGSTATE
  2
AcAmCatalogState
  3
DesignerAssemblies
 90
     1024
 91
        0
280
     0
281
     0
  0
CLASS
  1
ACAMGRCOMPDEFSET
  2
AcAmGrCompDefSet
  3
DesignerAssemblies
 90
     1024
 91
        1
280
     0
281
     0
  0
CLASS
  1
AMDTBROWSERDBTAB
  2
AmdtBrowserDbTab
  3
McadcomServices
 90
     1024
 91
        1
280
     0
281
     0
  0
CLASS
  1
CBROWSERAPPOBJECT
  2
CBrowserAppObject
  3
McadcomServices
 90
     1024
 91
        2
280
     0
281
     0
  0
CLASS
  1
DM_PLACEHOLDER
  2
AcDmSelsetPlaceholder
  3
McadcomServices
 90
     1024
 91
        1
280
     0
281
     0
  0
CLASS
  1
ACAMGFILTERDAT
  2
AcAmgFilterDat
  3
"AcadM|Product Description: AutoCAD Mechanical|Company: Autodesk, Inc."
 90
     1024
 91
        0
280
     0
281
     0
  0
CLASS
  1
DICTIONARYVAR
  2
AcDbDictionaryVar
  3
ObjectDBX Classes
 90
        0
 91
        9
280
     0
281
     0
  0
CLASS
  1
ACMSTANDARDJIS
  2
AcmStandardJIS
  3
"Amdt_StdImp|Product Description: AutoCAD Mechanical|Company: Autodesk, Inc."
 90
     1024
 91
        1
280
     0
281
     0
  0
CLASS
  1
ACMSURFSTANDARDJIS
  2
AcmSurfTextStdJIS
  3
"Amdt_StdImp|Product Description: AutoCAD Mechanical|Company: Autodesk, Inc."
 90
     1024
 91
        1
280
     0
281
     0
  0
CLASS
  1
ACMFCFSTANDARDJIS98
  2
AcmFCFStdJIS98
  3
"Amdt_StdImp|Product Description: AutoCAD Mechanical|Company: Autodesk, Inc."
 90
     1024
 91
        1
280
     0
281
     0
  0
CLASS
  1
ACMWELDSTANDARDJIS
  2
AcmWeldingStdJIS
  3
"Amdt_StdImp|Product Description: AutoCAD Mechanical|Company: Autodesk, Inc."
 90
     1024
 91
        1
280
     0
281
     0
  0
CLASS
  1
ACMIDSTANDARDJIS
  2
AcmIdStdJIS
  3
"Amdt_StdImp|Product Description: AutoCAD Mechanical|Company: Autodesk, Inc."
 90
     1024
 91
        1
280
     0
281
     0
  0
CLASS
  1
ACMDATUMSTANDARDJIS
  2
AcmDatumStdJIS
  3
"Amdt_StdImp|Product Description: AutoCAD Mechanical|Company: Autodesk, Inc."
 90
     1024
 91
        1
280
     0
281
     0
  0
CLASS
  1
ACMBOMSTANDARDJIS
  2
AcmBOMStdJIS
  3
"Amdt_StdImp|Product Description: AutoCAD Mechanical|Company: Autodesk, Inc."
 90
     1024
 91
        1
280
     0
281
     0
  0
CLASS
  1
ACMDETAILSTANDARDJIS
  2
AmdtDetailSymStdJIS
  3
"Amdt_StdImp|Product Description: AutoCAD Mechanical|Company: Autodesk, Inc."
 90
     1024
 91
        1
280
     0
281
     0
  0
CLASS
  1
ACMSECTIONSTANDARDJIS
  2
AmdtSectionSymStdJIS
  3
"Amdt_StdImp|Product Description: AutoCAD Mechanical|Company: Autodesk, Inc."
 90
     1024
 91
        1
280
     0
281
     0
  0
CLASS
  1
ACMCENTERLINESTANDARDJIS
  2
AmdtCenterLineStdJIS
  3
"Amdt_StdImp|Product Description: AutoCAD Mechanical|Company: Autodesk, Inc."
 90
     1024
 91
        1
280
     0
281
     0
  0
CLASS
  1
ACMTHREADLINESTANDARDJIS
  2
AmdtThreadLineStdJIS
  3
"Amdt_StdImp|Product Description: AutoCAD Mechanical|Company: Autodesk, Inc."
 90
     1024
 91
        1
280
     0
281
     0
  0
CLASS
  1
ACMNOTESTANDARDJIS
  2
AmdtNoteStdJIS
  3
"Amdt_StdImp|Product Description: AutoCAD Mechanical|Company: Autodesk, Inc."
 90
     1024
 91
        1
280
     0
281
     0
  0
CLASS
  1
ACAMGHOLECHARTSTDJIS
  2
AcAmgHoleChartStdJIS
  3
AmgDim|Product Description: AutoCAD Mechanical|Company: Autodesk, Inc.
 90
     1024
 91
        1
280
     0
281
     0
  0
CLASS
  1
MATERIAL
  2
AcDbMaterial
  3
ObjectDBX Classes
 90
     1153
 91
        3
280
     0
281
     0
  0
CLASS
  1
VISUALSTYLE
  2
AcDbVisualStyle
  3
ObjectDBX Classes
 90
     4095
 91
       26
280
     0
281
     0
  0
CLASS
  1
ACMTAPERSTANDARDISO
  2
AcmTaperStdISO
  3
"Amdt_StdImp|Product Description: AutoCAD Mechanical|Company: Autodesk, Inc."
 90
     1024
 91
        1
280
     0
281
     0
  0
CLASS
  1
ACMTAPERSTANDARDJIS
  2
AcmTaperStdJIS
  3
"Amdt_StdImp|Product Description: AutoCAD Mechanical|Company: Autodesk, Inc."
 90
     1024
 91
        1
280
     0
281
     0
  0
CLASS
  1
CAMSSTRUCTBTNSTATE
  2
StructBtnState
  3
DesignerAssemblies
 90
     1024
 91
        0
280
     0
281
     0
  0
CLASS
  1
EXACXREFPANELOBJECT
  2
ExAcXREFPanelObject
  3
EXAC_ESW
 90
     1025
 91
        0
280
     0
281
     0
  0
CLASS
  1
NPOCOLLECTION
  2
AcDbImpNonPersistentObjectsCollection
  3
ObjectDBX Classes
 90
     1153
 91
        0
280
     0
281
     0
  0
CLASS
  1
DIMASSOC
  2
AcDbDimAssoc
  3
"AcDbDimAssoc|Product Desc:     AcDim ARX App For Dimension|Company:          Autodesk, Inc.|WEB Address:      www.autodesk.com"
 90
        0
 91
        0
280
     0
281
     0
  0
CLASS
  1
SORTENTSTABLE
  2
AcDbSortentsTable
  3
ObjectDBX Classes
 90
        0
 91
        2
280
     0
281
     0
  0
CLASS
  1
AMDTNOTE
  2
AmdtNote
  3
"AcmSymBB|Product Description: AutoCAD Mechanical|Company: Autodesk, Inc."
 90
     1024
 91
        0
280
     0
281
     1
  0
CLASS
  1
SCALE
  2
AcDbScale
  3
ObjectDBX Classes
 90
     1153
 91
       18
280
     0
281
     0
  0
CLASS
  1
MLEADERSTYLE
  2
AcDbMLeaderStyle
  3
ACDB_MLEADERSTYLE_CLASS
 90
     4095
 91
        1
280
     0
281
     0
  0
CLASS
  1
ACDBSECTIONVIEWSTYLE
  2
AcDbSectionViewStyle
  3
ObjectDBX Classes
 90
     1025
 91
        8
280
     0
281
     0
  0
CLASS
  1
ACDBDETAILVIEWSTYLE
  2
AcDbDetailViewStyle
  3
ObjectDBX Classes
 90
     1025
 91
        7
280
     0
281
     0
  0
CLASS
  1
ACMANOOTATIONVIEWSTANDARDISO
  2
AmdtAnViewStdISO
  3
"Amdt_StdImp|Product Description: AutoCAD Mechanical|Company: Autodesk, Inc."
 90
     1024
 91
        1
280
     0
281
     0
  0
CLASS
  1
ACMSECTIONSTANDARDCUSTOM
  2
AmdtSectionSymStdCustom
  3
"Amdt_StdImp|Product Description: AutoCAD Mechanical|Company: Autodesk, Inc."
 90
     1024
 91
       13
280
     0
281
     0
  0
CLASS
  1
ACMDETAILTANDARDCUSTOM
  2
AmdtDetailSymStdCustom
  3
"Amdt_StdImp|Product Description: AutoCAD Mechanical|Company: Autodesk, Inc."
 90
     1024
 91
       10
280
     0
281
     0
  0
CLASS
  1
ACMANOOTATIONVIEWSTANDARDJIS
  2
AmdtAnViewStdJIS
  3
"Amdt_StdImp|Product Description: AutoCAD Mechanical|Company: Autodesk, Inc."
 90
     1024
 91
        1
280
     0
281
     0
  0
CLASS
  1
AMDTEDGESTANDARDJIS
  2
AmdtEdgeStdJIS
  3
"Amdt_StdImp|Product Description: AutoCAD Mechanical|Company: Autodesk, Inc."
 90
     1024
 91
        1
280
     0
281
     0
  0
CLASS
  1
FIELD
  2
AcDbField
  3
ObjectDBX Classes
 90
     1152
 91
       31
280
     0
281
     0
  0
CLASS
  1
FIELDLIST
  2
AcDbFieldList
  3
ObjectDBX Classes
 90
     1152
 91
        1
280
     0
281
     0
  0
CLASS
  1
ACMDATAENTRYBLOCK
  2
AcmDataEntryBlock
  3
AcmSymBB|Product Description: AutoCAD Mechanical|Company: Autodesk, Inc.
 90
     1024
 91
        1
280
     0
281
     0
  0
CLASS
  1
CELLSTYLEMAP
  2
AcDbCellStyleMap
  3
ObjectDBX Classes
 90
     1152
 91
        2
280
     0
281
     0
  0
CLASS
  1
ACMSURFSTANDARDISO2002
  2
AcmSurfTextStdISO2002
  3
"Amdt_StdImp|Product Description: AutoCAD Mechanical|Company: Autodesk, Inc."
 90
     1024
 91
        1
280
     0
281
     0
  0
CLASS
  1
ACMFCFSTANDARDISO2012
  2
AcmFCFStdISO2012
  3
"Amdt_StdImp|Product Description: AutoCAD Mechanical|Company: Autodesk, Inc."
 90
     1024
 91
        1
280
     0
281
     0
  0
CLASS
  1
ACMIDSTANDARDISO2012
  2
AcmIdStdISO2012
  3
"Amdt_StdImp|Product Description: AutoCAD Mechanical|Company: Autodesk, Inc."
 90
     1024
 91
        1
280
     0
281
     0
  0
CLASS
  1
ACMDATUMSTANDARDISO2012
  2
AcmDatumStdISO2012
  3
"Amdt_StdImp|Product Description: AutoCAD Mechanical|Company: Autodesk, Inc."
 90
     1024
 91
        1
280
     0
281
     0
  0
CLASS
  1
ACMSECTIONSTANDARDISO2001
  2
AmdtSectionSymStdISO2001
  3
"Amdt_StdImp|Product Description: AutoCAD Mechanical|Company: Autodesk, Inc."
 90
     1024
 91
        1
280
     0
281
     0
  0
ENDSEC
  0
SECTION
  2
TABLES
  0
TABLE
  2
VPORT
  5
8
330
0
100
AcDbSymbolTable
 70
     1
  0
VPORT
  5
9BA
330
8
100
AcDbSymbolTableRecord
100
AcDbViewportTableRecord
  2
*Active
 70
     0
 10
0.0
 20
0.0
 11
1.0
 21
1.0
 12
76.41775958075993
 22
25.2540137448049
 13
0.0
 23
0.0
 14
2.5
 24
2.5
 15
10.0
 25
10.0
 16
0.0
 26
0.0
 36
1.0
 17
0.0
 27
0.0
 37
0.0
 40
87.30033409938533
 41
2.571232876712328
 42
50.0
 43
0.0
 44
0.0
 50
0.0
 51
0.0
 71
     0
 72
  1000
 73
     1
 74
     3
 75
     0
 76
     0
 77
     0
 78
     0
281
     0
 65
     0
110
0.0
120
0.0
130
0.0
111
1.0
121
0.0
131
0.0
112
0.0
122
1.0
132
0.0
 79
     0
146
0.0
348
9C5
 60
     3
 61
     5
292
     1
282
     1
141
0.0
142
0.0
 63
   250
421
  3355443
1001
ACAD_NAV_VCDISPLAY
1070
     3
  0
ENDTAB
  0
TABLE
  2
LTYPE
  5
5
330
0
100
AcDbSymbolTable
 70
    18
  0
LTYPE
  5
14
330
5
100
AcDbSymbolTableRecord
100
AcDbLinetypeTableRecord
  2
ByBlock
 70
     0
  3

 72
    65
 73
     0
 40
0.0
  0
LTYPE
  5
15
330
5
100
AcDbSymbolTableRecord
100
AcDbLinetypeTableRecord
  2
ByLayer
 70
     0
  3

 72
    65
 73
     0
 40
0.0
  0
LTYPE
  5
16
330
5
100
AcDbSymbolTableRecord
100
AcDbLinetypeTableRecord
  2
Continuous
 70
     0
  3
Solid line
 72
    65
 73
     0
 40
0.0
  0
LTYPE
  5
63
330
5
100
AcDbSymbolTableRecord
100
AcDbLinetypeTableRecord
  2
HIDDEN
 70
     0
  3
Hidden __ __ __ __ __ __ __ __ __ __ __ __ __ _
 72
    65
 73
     2
 40
9.524999999999996
 49
6.349999999999998
 74
     0
 49
-3.174999999999998
 74
     0
  0
LTYPE
  5
64
330
5
100
AcDbSymbolTableRecord
100
AcDbLinetypeTableRecord
  2
PHANTOM2
 70
     0
  3
Phantom (.5x) ___ _ _ ___ _ _ ___ _ _ ___ _ _
 72
    65
 73
     6
 40
31.75
 49
15.875
 74
     0
 49
-3.174999999999998
 74
     0
 49
3.174999999999998
 74
     0
 49
-3.174999999999998
 74
     0
 49
3.174999999999998
 74
     0
 49
-3.174999999999998
 74
     0
  0
LTYPE
  5
65
330
5
100
AcDbSymbolTableRecord
100
AcDbLinetypeTableRecord
  2
CENTER
 70
     0
  3
Center ____ _ ____ _ ____ _ ____ _ ____ _ ____
 72
    65
 73
     4
 40
50.8
 49
31.75
 74
     0
 49
-6.349999999999998
 74
     0
 49
6.349999999999998
 74
     0
 49
-6.349999999999998
 74
     0
  0
LTYPE
  5
90
330
5
100
AcDbSymbolTableRecord
100
AcDbLinetypeTableRecord
  2
AM_ISO02W050
 70
     0
  3
__ __ __ __ __ __ __ __ __ __ __ __ __ __ __
 72
    65
 73
     2
 40
7.5
 49
6.0
 74
     0
 49
-1.5
 74
     0
  0
LTYPE
  5
91
330
5
100
AcDbSymbolTableRecord
100
AcDbLinetypeTableRecord
  2
AM_ISO08W050
 70
     0
  3
____ . ____ . ____ . ____ . ____ . ____ . ____
 72
    65
 73
     4
 40
18.0
 49
12.0
 74
     0
 49
-1.5
 74
     0
 49
3.0
 74
     0
 49
-1.5
 74
     0
  0
LTYPE
  5
92
330
5
100
AcDbSymbolTableRecord
100
AcDbLinetypeTableRecord
  2
AM_ISO09W050
 70
     0
  3
_____ . . _____ . . _____ . . ____ .. ____
 72
    65
 73
     6
 40
22.5
 49
12.0
 74
     0
 49
-1.5
 74
     0
 49
3.0
 74
     0
 49
-1.5
 74
     0
 49
3.0
 74
     0
 49
-1.5
 74
     0
  0
LTYPE
  5
93
330
5
100
AcDbSymbolTableRecord
100
AcDbLinetypeTableRecord
  2
Amconstr
 70
     0
  3
_______________________
 72
    65
 73
     2
 40
9999.0
 49
9999.0
 74
     0
 49
0.0
 74
     0
  0
LTYPE
  5
94
330
5
100
AcDbSymbolTableRecord
100
AcDbLinetypeTableRecord
  2
AM_ISO08W050x2
 70
     0
  3
__ . __ . __ . __ . __ . __
 72
    65
 73
     4
 40
9.0
 49
6.0
 74
     0
 49
-0.75
 74
     0
 49
1.5
 74
     0
 49
-0.75
 74
     0
  0
LTYPE
  5
95
330
5
100
AcDbSymbolTableRecord
100
AcDbLinetypeTableRecord
  2
AM_ISO02W050x2
 70
     0
  3
 _ _ _ _ _ _ _ _ _ _ _ _
 72
    65
 73
     2
 40
3.75
 49
3.0
 74
     0
 49
-0.75
 74
     0
  0
LTYPE
  5
98
330
5
100
AcDbSymbolTableRecord
100
AcDbLinetypeTableRecord
  2
Amzigzag
 70
     0
  3
/\/-/\/-/\/-/\/-/\/-/\/
 72
    65
 73
     2
 40
11.0001
 49
0.0001
 74
     4
 75
   136
340
97
 46
0.04
 50
0.0
 44
0.0
 45
0.0
 49
-11.0
 74
     0
  0
LTYPE
  5
A7
330
5
100
AcDbSymbolTableRecord
100
AcDbLinetypeTableRecord
  2
ACISOWELD
 70
     0
  3
_ _ _ _ _
 72
    65
 73
     2
 40
2.0
 49
2.0
 74
     0
 49
-1.0
 74
     0
  0
LTYPE
  5
A8
330
5
100
AcDbSymbolTableRecord
100
AcDbLinetypeTableRecord
  2
ACISOTGB
 70
     0
  3
__ . . __ . .
 72
    65
 73
     6
 40
9.0
 49
4.0
 74
     0
 49
-1.0
 74
     0
 49
1.0
 74
     0
 49
-1.0
 74
     0
 49
1.0
 74
     0
 49
-1.0
 74
     0
  0
LTYPE
  5
A9
330
5
100
AcDbSymbolTableRecord
100
AcDbLinetypeTableRecord
  2
ACISOTGL
 70
     0
  3
_ _ _ _ _
 72
    65
 73
     2
 40
3.0
 49
2.0
 74
     0
 49
-1.0
 74
     0
  0
LTYPE
  5
8AF
330
5
100
AcDbSymbolTableRecord
100
AcDbLinetypeTableRecord
  2
ACJISWELD
 70
     0
  3
_ _ _ _ _
 72
    65
 73
     2
 40
2.0
 49
2.0
 74
     0
 49
-1.0
 74
     0
  0
LTYPE
  5
8B0
330
5
100
AcDbSymbolTableRecord
100
AcDbLinetypeTableRecord
  2
ACJISTGB
 70
     0
  3
__ . . __ . .
 72
    65
 73
     6
 40
9.0
 49
4.0
 74
     0
 49
-1.0
 74
     0
 49
1.0
 74
     0
 49
-1.0
 74
     0
 49
1.0
 74
     0
 49
-1.0
 74
     0
  0
LTYPE
  5
8B1
330
5
100
AcDbSymbolTableRecord
100
AcDbLinetypeTableRecord
  2
ACJISTGL
 70
     0
  3
_ _ _ _ _
 72
    65
 73
     2
 40
3.0
 49
2.0
 74
     0
 49
-1.0
 74
     0
  0
ENDTAB
  0
TABLE
  2
LAYER
  5
2
102
{ACAD_XDICTIONARY
360
60C
102
}
330
0
100
AcDbSymbolTable
 70
     6
  0
LAYER
  5
10
102
{ACAD_XDICTIONARY
360
23EF
102
}
330
2
100
AcDbSymbolTableRecord
100
AcDbLayerTableRecord
  2
0
 70
     0
 62
     7
  6
Continuous
370
    30
390
F
347
9BE
  0
LAYER
  5
1F04
330
2
100
AcDbSymbolTableRecord
100
AcDbLayerTableRecord
  2
Defpoints
 70
     0
 62
     7
  6
Continuous
290
     0
370
    -3
390
F
347
9BE
  0
LAYER
  5
21CD
102
{ACAD_XDICTIONARY
360
21CE
102
}
330
2
100
AcDbSymbolTableRecord
100
AcDbLayerTableRecord
  2
AM_8
 70
     0
 62
     1
  6
Continuous
370
    15
390
F
347
9BE
1001
AcAecLayerStandard
1000

1000

  0
LAYER
  5
21CF
102
{ACAD_XDICTIONARY
360
21D0
102
}
330
2
100
AcDbSymbolTableRecord
100
AcDbLayerTableRecord
  2
AM_7
 70
     0
 62
     2
  6
AM_ISO08W050
370
    15
390
F
347
9BE
1001
AcAecLayerStandard
1000

1000

  0
LAYER
  5
21D1
102
{ACAD_XDICTIONARY
360
21D2
102
}
330
2
100
AcDbSymbolTableRecord
100
AcDbLayerTableRecord
  2
PV0005_1
 70
     0
 62
     7
  6
Continuous
370
    -3
390
F
347
9BE
  0
LAYER
  5
249B
330
2
100
AcDbSymbolTableRecord
100
AcDbLayerTableRecord
  2
AM_CL
 70
     0
 62
     1
  6
Amconstr
370
    25
390
F
347
9BE
1001
AcAecLayerStandard
1000

1000

  0
ENDTAB
  0
TABLE
  2
STYLE
  5
3
330
0
100
AcDbSymbolTable
 70
     6
  0
STYLE
  5
11
330
3
100
AcDbSymbolTableRecord
100
AcDbTextStyleTableRecord
  2
STANDARD
 70
     0
 40
0.0
 41
1.0
 50
0.0
 71
     0
 42
3.0
  3
MS PGothic.ttf
  4

1001
ACAD
1000
MS PGothic
1071
    32818
  0
STYLE
  5
97
330
3
100
AcDbSymbolTableRecord
100
AcDbTextStyleTableRecord
  2

 70
     1
 40
0.0
 41
1.0
 50
0.0
 71
     0
 42
2.5
  3
genltshp.shx
  4

  0
STYLE
  5
99
330
3
100
AcDbSymbolTableRecord
100
AcDbTextStyleTableRecord
  2
ACISOTS
 70
     0
 40
1.0
 41
1.0
 50
0.0
 71
     0
 42
2.5
  3
isocp.shx
  4
extfont.shx
  0
STYLE
  5
A6
330
3
100
AcDbSymbolTableRecord
100
AcDbTextStyleTableRecord
  2
ACISOGDT
 70
     0
 40
0.0
 41
1.0
 50
0.0
 71
     0
 42
2.5
  3
amgdt.shx
  4

  0
STYLE
  5
8A2
330
3
100
AcDbSymbolTableRecord
100
AcDbTextStyleTableRecord
  2
ACJISTS
 70
     0
 40
1.0
 41
1.0
 50
0.0
 71
     0
 42
2.5
  3
isocp.shx
  4
extfont.shx
  0
STYLE
  5
8AE
330
3
100
AcDbSymbolTableRecord
100
AcDbTextStyleTableRecord
  2
ACJISGDT
 70
     0
 40
0.0
 41
1.0
 50
0.0
 71
     0
 42
2.5
  3
amgdt.shx
  4

  0
ENDTAB
  0
TABLE
  2
VIEW
  5
6
330
0
100
AcDbSymbolTable
 70
     0
  0
ENDTAB
  0
TABLE
  2
UCS
  5
7
330
0
100
AcDbSymbolTable
 70
     0
  0
ENDTAB
  0
TABLE
  2
APPID
  5
9
330
0
100
AcDbSymbolTable
 70
    41
  0
APPID
  5
12
330
9
100
AcDbSymbolTableRecord
100
AcDbRegAppTableRecord
  2
ACAD
 70
     0
  0
APPID
  5
34
330
9
100
AcDbSymbolTableRecord
100
AcDbRegAppTableRecord
  2
MCAD_NO_VIS
 70
     0
  0
APPID
  5
35
330
9
100
AcDbSymbolTableRecord
100
AcDbRegAppTableRecord
  2
ACAD_TEMP_GRAPHIC
 70
     0
  0
APPID
  5
67
330
9
100
AcDbSymbolTableRecord
100
AcDbRegAppTableRecord
  2
AD_DRAW
 70
     0
  0
APPID
  5
6A
330
9
100
AcDbSymbolTableRecord
100
AcDbRegAppTableRecord
  2
ACATTRIBSERVICES
 70
     0
  0
APPID
  5
8A
330
9
100
AcDbSymbolTableRecord
100
AcDbRegAppTableRecord
  2
DESIGNERASSEMBLIES
 70
     0
  0
APPID
  5
B6
330
9
100
AcDbSymbolTableRecord
100
AcDbRegAppTableRecord
  2
ACAD_DSTYLE_DIMARC_LENGTH_SYMBOL
 70
     0
  0
APPID
  5
B7
330
9
100
AcDbSymbolTableRecord
100
AcDbRegAppTableRecord
  2
ACAD_DSTYLE_DIMJOGGED_JOGANGLE_SYMBOL
 70
     0
  0
APPID
  5
D9
330
9
100
AcDbSymbolTableRecord
100
AcDbRegAppTableRecord
  2
ACADM_DIM_EDIT
 70
     0
  0
APPID
  5
DA
330
9
100
AcDbSymbolTableRecord
100
AcDbRegAppTableRecord
  2
AMDT_DM_ADJ
 70
     0
  0
APPID
  5
E3
330
9
100
AcDbSymbolTableRecord
100
AcDbRegAppTableRecord
  2
ACAD_DSTYLE_DIMTEXT_FILL
 70
     0
  0
APPID
  5
E4
330
9
100
AcDbSymbolTableRecord
100
AcDbRegAppTableRecord
  2
ACAD_DSTYLE_DIMEXT_LENGTH
 70
     0
  0
APPID
  5
E5
330
9
100
AcDbSymbolTableRecord
100
AcDbRegAppTableRecord
  2
ACAD_DSTYLE_DIMEXT_ENABLED
 70
     0
  0
APPID
  5
E6
330
9
100
AcDbSymbolTableRecord
100
AcDbRegAppTableRecord
  2
ACAD_DSTYLE_DIM_LINETYPE
 70
     0
  0
APPID
  5
E7
330
9
100
AcDbSymbolTableRecord
100
AcDbRegAppTableRecord
  2
ACAD_DSTYLE_DIM_EXT1_LINETYPE
 70
     0
  0
APPID
  5
E8
330
9
100
AcDbSymbolTableRecord
100
AcDbRegAppTableRecord
  2
ACAD_DSTYLE_DIM_EXT2_LINETYPE
 70
     0
  0
APPID
  5
1E1
330
9
100
AcDbSymbolTableRecord
100
AcDbRegAppTableRecord
  2
AcAecLayerStandard
 70
     0
  0
APPID
  5
5E3
330
9
100
AcDbSymbolTableRecord
100
AcDbRegAppTableRecord
  2
ACAD_PSEXT
 70
     0
  0
APPID
  5
DFE
330
9
100
AcDbSymbolTableRecord
100
AcDbRegAppTableRecord
  2
GENIUS_GENODEF_13
 70
     0
  0
APPID
  5
DFF
330
9
100
AcDbSymbolTableRecord
100
AcDbRegAppTableRecord
  2
GENIUS_GENOBJ-N-FIL_13
 70
     0
  0
APPID
  5
E00
330
9
100
AcDbSymbolTableRecord
100
AcDbRegAppTableRecord
  2
GENIUS_GENREC_14
 70
     0
  0
APPID
  5
E01
330
9
100
AcDbSymbolTableRecord
100
AcDbRegAppTableRecord
  2
GENIUS_GENOBJ-N-REC_13
 70
     0
  0
APPID
  5
20CF
330
9
100
AcDbSymbolTableRecord
100
AcDbRegAppTableRecord
  2
DIMEXPLODE
 70
     0
  0
APPID
  5
21CB
330
9
100
AcDbSymbolTableRecord
100
AcDbRegAppTableRecord
  2
ACAD_NAV_VCDISPLAY
 70
     0
  0
APPID
  5
21D3
330
9
100
AcDbSymbolTableRecord
100
AcDbRegAppTableRecord
  2
GRADIENTCOLOR1ACI
 70
     0
  0
APPID
  5
21D4
330
9
100
AcDbSymbolTableRecord
100
AcDbRegAppTableRecord
  2
GRADIENTCOLOR2ACI
 70
     0
  0
APPID
  5
21D5
330
9
100
AcDbSymbolTableRecord
100
AcDbRegAppTableRecord
  2
GENIUS_GENOENT_13
 70
     0
  0
APPID
  5
21D6
330
9
100
AcDbSymbolTableRecord
100
AcDbRegAppTableRecord
  2
GENIUS_GENOLIS_13
 70
     0
  0
APPID
  5
21D7
330
9
100
AcDbSymbolTableRecord
100
AcDbRegAppTableRecord
  2
GENIUS_GENOREF_13
 70
     0
  0
APPID
  5
21D8
330
9
100
AcDbSymbolTableRecord
100
AcDbRegAppTableRecord
  2
GENIUS_GENOBJ-N-CEN_13
 70
     0
  0
APPID
  5
21D9
330
9
100
AcDbSymbolTableRecord
100
AcDbRegAppTableRecord
  2
GENIUS_GENCEN_19
 70
     0
  0
APPID
  5
21DA
330
9
100
AcDbSymbolTableRecord
100
AcDbRegAppTableRecord
  2
GENIUS_GENFIL_13
 70
     0
  0
APPID
  5
21DB
330
9
100
AcDbSymbolTableRecord
100
AcDbRegAppTableRecord
  2
GENIUS_GENOBJ-N-CHA_13
 70
     0
  0
APPID
  5
21DC
330
9
100
AcDbSymbolTableRecord
100
AcDbRegAppTableRecord
  2
GENIUS_GENOBJ-N-CRS_13
 70
     0
  0
APPID
  5
21DD
330
9
100
AcDbSymbolTableRecord
100
AcDbRegAppTableRecord
  2
GENIUS_GENCRS_20
 70
     0
  0
APPID
  5
21DE
330
9
100
AcDbSymbolTableRecord
100
AcDbRegAppTableRecord
  2
GENIUS_GENOBJ-N-HTC_13
 70
     0
  0
APPID
  5
21DF
330
9
100
AcDbSymbolTableRecord
100
AcDbRegAppTableRecord
  2
GENIUS_GENHATCH_13
 70
     0
  0
APPID
  5
23EA
330
9
100
AcDbSymbolTableRecord
100
AcDbRegAppTableRecord
  2
ACAD_EXEMPT_FROM_CAD_STANDARDS
 70
     0
  0
APPID
  5
2433
330
9
100
AcDbSymbolTableRecord
100
AcDbRegAppTableRecord
  2
ACAD_MLEADERVER
 70
     0
  0
APPID
  5
2482
330
9
100
AcDbSymbolTableRecord
100
AcDbRegAppTableRecord
  2
ACAD_DSTYLE_DIMBREAK
 70
     0
  0
APPID
  5
2483
330
9
100
AcDbSymbolTableRecord
100
AcDbRegAppTableRecord
  2
ACAD_DSTYLE_DIMJAG
 70
     0
  0
ENDTAB
  0
TABLE
  2
DIMSTYLE
  5
A
330
0
100
AcDbSymbolTable
 70
    17
100
AcDbDimStyleTable
 71
     4
340
8BA
340
8CF
340
8D2
340
B5
  0
DIMSTYLE
105
B5
102
{ACAD_REACTORS
330
2471
102
}
330
A
100
AcDbSymbolTableRecord
100
AcDbDimStyleTableRecord
  2
AM_ISO
 70
     0
  4
"
 41
2.5
 42
1.0
 43
10.0
 44
1.0
 47
0.1
 48
0.1
 49
0.0
 73
     0
 74
     0
 77
     1
 78
     8
 79
     2
 90
     1
140
3.5
141
0.0
143
0.0393701
146
0.71
147
1.5
172
     1
176
   256
177
   256
178
     2
271
     2
272
     2
283
     0
284
     8
340
11
341
39D
342
39D
371
    -1
372
    -1
1001
ACAD_DSTYLE_DIMJOGGED_JOGANGLE_SYMBOL
1070
   384
1040
0.7853981633974483
  0
DIMSTYLE
105
BE
330
A
100
AcDbSymbolTableRecord
100
AcDbDimStyleTableRecord
  2
AM_ISO$3
 70
     0
  4
"
 41
2.5
 42
1.0
 43
10.0
 44
1.0
 47
0.1
 48
0.1
 73
     0
 77
     1
 78
     8
 79
     2
 90
     1
140
3.5
141
0.0
143
0.0393701
146
0.71
147
1.5
176
   256
177
   256
178
     2
271
     2
272
     3
274
     4
283
     0
284
     8
288
     1
289
     0
340
11
371
    -1
372
    -1
1001
ACAD_DSTYLE_DIMJOGGED_JOGANGLE_SYMBOL
1070
   384
1040
0.7853981633974483
  0
DIMSTYLE
105
C1
330
A
100
AcDbSymbolTableRecord
100
AcDbDimStyleTableRecord
  2
AM_ISO$4
 70
     0
  4
"
 41
2.5
 42
1.0
 43
10.0
 44
1.0
 47
0.1
 48
0.1
 73
     0
 77
     1
 78
     8
 79
     2
 90
     1
140
3.5
141
0.0
143
0.0393701
146
0.71
147
1.5
176
   256
177
   256
178
     2
271
     2
272
     3
274
     4
283
     0
284
     8
288
     1
289
     0
340
11
371
    -1
372
    -1
1001
ACAD_DSTYLE_DIMJOGGED_JOGANGLE_SYMBOL
1070
   384
1040
0.7853981633974483
  0
DIMSTYLE
105
C4
330
A
100
AcDbSymbolTableRecord
100
AcDbDimStyleTableRecord
  2
AM_ISO$6
 70
     0
  4
"
 41
2.5
 42
1.0
 43
10.0
 44
1.0
 47
0.1
 48
0.1
 73
     0
 74
     0
 78
     8
 79
     2
 90
     1
140
3.5
141
0.0
143
0.0393701
146
0.71
147
1.5
172
     1
176
   256
177
   256
178
     2
271
     2
272
     3
274
     4
283
     0
284
     8
340
11
371
    -1
372
    -1
1001
ACAD_DSTYLE_DIMJOGGED_JOGANGLE_SYMBOL
1070
   384
1040
0.7853981633974483
  0
DIMSTYLE
105
C7
330
A
100
AcDbSymbolTableRecord
100
AcDbDimStyleTableRecord
  2
AM_ISO$7
 70
     0
  4
"
 41
2.5
 42
1.0
 43
10.0
 44
1.0
 47
0.1
 48
0.1
 73
     0
 74
     0
 77
     1
 78
     8
 79
     2
 90
     1
140
5.0
141
0.0
143
0.0393701
146
0.71
147
1.5
172
     1
176
   256
177
   256
178
     2
271
     2
272
     3
274
     4
283
     0
284
     8
340
11
371
    -1
372
    -1
1001
ACAD_DSTYLE_DIMJOGGED_JOGANGLE_SYMBOL
1070
   384
1040
0.7853981633974483
  0
DIMSTYLE
105
CA
330
A
100
AcDbSymbolTableRecord
100
AcDbDimStyleTableRecord
  2
AM_ISO$SF
 70
     0
  4
"
 41
2.5
 42
1.0
 43
10.0
 44
1.0
 47
0.1
 48
0.1
 73
     0
 74
     0
 75
     1
 76
     1
 77
     1
 78
     8
 79
     2
 90
     1
140
3.5
141
0.0
143
0.0393701
146
0.71
147
1.5
172
     1
176
   256
177
   256
178
     2
271
     2
272
     3
274
     4
283
     0
284
     8
340
11
371
    -1
372
    -1
1001
ACAD_DSTYLE_DIMJOGGED_JOGANGLE_SYMBOL
1070
   384
1040
0.7853981633974483
  0
DIMSTYLE
105
D1
330
A
100
AcDbSymbolTableRecord
100
AcDbDimStyleTableRecord
  2
AM_ISO$SH
 70
     0
  4
"
 41
2.5
 42
1.0
 43
10.0
 44
1.0
 47
0.1
 48
0.1
 73
     0
 74
     0
 75
     1
 76
     1
 77
     1
 78
     8
 79
     2
 90
     1
140
3.5
141
0.0
143
0.0393701
144
2.0
146
0.71
147
1.5
172
     1
173
     1
176
   256
177
   256
178
     2
271
     2
272
     3
274
     4
283
     0
284
     8
340
11
343
CB
371
    -1
372
    -1
1001
ACAD_DSTYLE_DIMJOGGED_JOGANGLE_SYMBOL
1070
   384
1040
0.7853981633974483
  0
DIMSTYLE
105
8BA
330
A
100
AcDbSymbolTableRecord
100
AcDbDimStyleTableRecord
  2
AM_JIS
 70
     0
  4
"
 41
2.5
 42
1.0
 43
10.0
 44
1.0
 47
0.1
 48
0.1000000001
 73
     0
 74
     0
 77
     3
 78
     8
 79
     2
 90
     1
140
2.5
141
0.0
143
0.0393701
146
0.71
147
1.0
172
     1
176
   256
177
   256
178
     7
271
     2
272
     2
283
     0
284
     8
340
11
341
39D
342
39D
371
    -1
372
    -1
1001
ACAD_DSTYLE_DIMJOGGED_JOGANGLE_SYMBOL
1070
   384
1040
0.7853981633974483
  0
DIMSTYLE
105
8C3
330
A
100
AcDbSymbolTableRecord
100
AcDbDimStyleTableRecord
  2
AM_JIS$3
 70
     0
  4
"
 41
2.5
 42
1.0
 43
10.0
 44
1.0
 47
0.1
 48
0.1000000001
 73
     0
 74
     0
 77
     3
 78
     8
 79
     2
 90
     1
140
2.5
141
0.0
143
0.0393701
146
0.71
147
1.0
172
     1
176
   256
177
   256
178
     7
271
     2
272
     2
283
     0
284
     8
289
     2
340
11
341
39D
342
39D
371
    -1
372
    -1
1001
ACAD_DSTYLE_DIMJOGGED_JOGANGLE_SYMBOL
1070
   384
1040
0.7853981633974483
  0
DIMSTYLE
105
8C6
330
A
100
AcDbSymbolTableRecord
100
AcDbDimStyleTableRecord
  2
AM_JIS$4
 70
     0
  4
"
 41
2.5
 42
1.0
 43
10.0
 44
1.0
 47
0.1
 48
0.1000000001
 73
     0
 74
     0
 77
     3
 78
     8
 79
     2
 90
     1
140
2.5
141
0.0
143
0.0393701
146
0.71
147
1.0
172
     1
176
   256
177
   256
178
     7
271
     2
272
     2
283
     0
284
     8
340
11
341
39D
342
39D
371
    -1
372
    -1
1001
ACAD_DSTYLE_DIMJOGGED_JOGANGLE_SYMBOL
1070
   384
1040
0.7853981633974483
  0
DIMSTYLE
105
8C9
330
A
100
AcDbSymbolTableRecord
100
AcDbDimStyleTableRecord
  2
AM_JIS$6
 70
     0
  4
"
 41
2.5
 42
1.0
 43
10.0
 44
1.0
 47
0.1
 48
0.1000000001
 73
     0
 74
     0
 78
     8
 79
     2
 90
     1
140
3.5
141
0.0
143
0.0393701
146
0.71
147
1.5
172
     1
176
   256
177
   256
178
     7
271
     2
272
     2
274
     4
283
     0
284
     8
340
11
341
39D
342
39D
343
39D
344
39D
371
    -1
372
    -1
1001
ACAD_DSTYLE_DIMJOGGED_JOGANGLE_SYMBOL
1070
   384
1040
0.7853981633974483
  0
DIMSTYLE
105
8CC
330
A
100
AcDbSymbolTableRecord
100
AcDbDimStyleTableRecord
  2
AM_JIS$7
 70
     0
  4
"
 41
2.5
 42
1.0
 43
10.0
 44
1.0
 47
0.1
 48
0.1000000001
 73
     0
 74
     0
 77
     3
 78
     8
 79
     2
 90
     1
140
2.5
141
0.0
143
0.0393701
146
0.71
147
1.0
172
     1
176
   256
177
   256
178
     7
271
     2
272
     2
283
     0
284
     8
340
11
341
39D
342
39D
371
    -1
372
    -1
1001
ACAD_DSTYLE_DIMJOGGED_JOGANGLE_SYMBOL
1070
   384
1040
0.7853981633974483
  0
DIMSTYLE
105
8CF
330
A
100
AcDbSymbolTableRecord
100
AcDbDimStyleTableRecord
  2
AM_JIS$SF
 70
     0
  4
"
 41
2.5
 42
1.0
 43
10.0
 44
1.0
 47
0.1
 48
0.1
 73
     0
 74
     0
 75
     1
 76
     1
 77
     3
 78
     8
 79
     2
 90
     1
140
2.5
141
0.0
143
0.0393701
146
0.71
147
1.0
172
     1
176
   256
177
   256
178
     7
271
     2
272
     2
283
     0
284
     8
340
11
341
39D
342
39D
371
    -1
372
    -1
1001
ACAD_DSTYLE_DIMJOGGED_JOGANGLE_SYMBOL
1070
   384
1040
0.7853981633974483
  0
DIMSTYLE
105
8D2
330
A
100
AcDbSymbolTableRecord
100
AcDbDimStyleTableRecord
  2
AM_JIS$SH
 70
     0
  4
"
 41
2.5
 42
1.0
 43
10.0
 44
1.0
 47
0.1
 48
0.1
 73
     0
 74
     0
 75
     1
 76
     1
 77
     3
 78
     8
 79
     2
 90
     1
140
2.5
141
0.0
143
0.0393701
144
2.0
146
0.71
147
1.0
172
     1
173
     1
176
   256
177
   256
178
     7
271
     2
272
     2
283
     0
284
     8
340
11
341
39D
343
CB
344
39D
371
    -1
372
    -1
1001
ACAD_DSTYLE_DIMJOGGED_JOGANGLE_SYMBOL
1070
   384
1040
0.7853981633974483
  0
DIMSTYLE
105
C93
330
A
100
AcDbSymbolTableRecord
100
AcDbDimStyleTableRecord
  2
AM_JIS$2
 70
     0
  4
"
 41
2.5
 42
1.0
 43
10.0
 44
1.0
 47
0.1
 48
0.1000000001
 73
     0
 74
     0
 77
     3
 78
     8
 79
     2
 90
     1
140
2.5
141
0.0
143
0.0393701
146
0.71
147
1.0
172
     1
176
   256
177
   256
178
     7
271
     2
272
     2
283
     0
284
     8
340
11
341
39D
342
39D
371
    -1
372
    -1
1001
ACAD_DSTYLE_DIMJOGGED_JOGANGLE_SYMBOL
1070
   384
1040
0.7853981633974483
  0
DIMSTYLE
105
1BA7
330
A
100
AcDbSymbolTableRecord
100
AcDbDimStyleTableRecord
  2
AM_JIS$0
 70
     0
  4
"
 41
2.5
 42
1.0
 43
10.0
 44
1.0
 47
0.1
 48
0.1000000001
 73
     0
 74
     0
 77
     3
 78
     9
 79
     2
 90
     1
140
2.5
141
0.0
143
0.0393701
146
0.71
147
1.0
172
     1
176
   256
177
   256
178
     7
271
     3
272
     3
283
     0
284
     8
340
11
341
39D
342
39D
371
    -1
372
    -1
1001
ACAD_DSTYLE_DIMJOGGED_JOGANGLE_SYMBOL
1070
   384
1040
0.7853981633974483
  0
ENDTAB
  0
TABLE
  2
BLOCK_RECORD
  5
1
330
0
100
AcDbSymbolTable
 70
    10
  0
BLOCK_RECORD
  5
23
102
{ACAD_XDICTIONARY
360
249D
102
}
330
1
100
AcDbSymbolTableRecord
100
AcDbBlockTableRecord
  2
*Model_Space
340
26
 70
     0
280
     1
281
     0
  0
BLOCK_RECORD
  5
1F
330
1
100
AcDbSymbolTableRecord
100
AcDbBlockTableRecord
  2
*Paper_Space
340
22
 70
     0
280
     1
281
     0
  0
BLOCK_RECORD
  5
27
330
1
100
AcDbSymbolTableRecord
100
AcDbBlockTableRecord
  2
*Paper_Space0
340
2A
 70
     0
280
     1
281
     0
  0
BLOCK_RECORD
  5
CB
330
1
100
AcDbSymbolTableRecord
100
AcDbBlockTableRecord
  2
GENAXEH
340
0
 70
     0
280
     1
281
     0
  0
BLOCK_RECORD
  5
39D
330
1
100
AcDbSymbolTableRecord
100
AcDbBlockTableRecord
  2
_Open30
340
0
 70
     0
280
     1
281
     0
  0
BLOCK_RECORD
  5
21A4
330
1
100
AcDbSymbolTableRecord
100
AcDbBlockTableRecord
  2
_ACMNONE
340
0
 70
     0
280
     1
281
     0
  0
BLOCK_RECORD
  5
21A8
330
1
100
AcDbSymbolTableRecord
100
AcDbBlockTableRecord
  2
_ACMFILLED15
340
0
 70
     0
280
     1
281
     0
  0
BLOCK_RECORD
  5
21BA
330
1
100
AcDbSymbolTableRecord
100
AcDbBlockTableRecord
  2
_ACMOPEN15
340
0
 70
     0
280
     1
281
     0
  0
BLOCK_RECORD
  5
24A1
330
1
100
AcDbSymbolTableRecord
100
AcDbBlockTableRecord
  2
_ACMFILLEDHALF
340
0
 70
     0
280
     1
281
     0
  0
BLOCK_RECORD
  5
24D0
102
{ACAD_XDICTIONARY
360
25B7
102
}
330
1
100
AcDbSymbolTableRecord
100
AcDbBlockTableRecord
  2
A$C55A73825
340
0
 70
     4
280
     1
281
     0
  0
ENDTAB
  0
ENDSEC
  0
SECTION
  2
BLOCKS
  0
BLOCK
  5
24
330
23
100
AcDbEntity
  8
0
100
AcDbBlockBegin
  2
*Model_Space
 70
     0
 10
0.0
 20
0.0
 30
0.0
  3
*Model_Space
  1

  0
ENDBLK
  5
25
330
23
100
AcDbEntity
  8
0
100
AcDbBlockEnd
  0
BLOCK
  5
20
330
1F
100
AcDbEntity
 67
     1
  8
0
100
AcDbBlockBegin
  2
*Paper_Space
 70
     0
 10
0.0
 20
0.0
 30
0.0
  3
*Paper_Space
  1

  0
ENDBLK
  5
21
330
1F
100
AcDbEntity
 67
     1
  8
0
100
AcDbBlockEnd
  0
BLOCK
  5
28
330
27
100
AcDbEntity
 67
     1
  8
0
100
AcDbBlockBegin
  2
*Paper_Space0
 70
     0
 10
0.0
 20
0.0
 30
0.0
  3
*Paper_Space0
  1

  0
ENDBLK
  5
29
330
27
100
AcDbEntity
 67
     1
  8
0
100
AcDbBlockEnd
  0
BLOCK
  5
CD
330
CB
100
AcDbEntity
  8
0
100
AcDbBlockBegin
  2
GENAXEH
 70
     0
 10
0.0
 20
0.0
 30
0.0
  3
GENAXEH
  1

  0
LINE
  5
CC
330
CB
100
AcDbEntity
  8
0
100
AcDbLine
 10
-1.0
 20
0.0
 30
0.0
 11
1.0
 21
0.0
 31
0.0
  0
ENDBLK
  5
CE
330
CB
100
AcDbEntity
  8
0
100
AcDbBlockEnd
  0
BLOCK
  5
3A1
330
39D
100
AcDbEntity
  8
0
100
AcDbBlockBegin
  2
_Open30
 70
     0
 10
0.0
 20
0.0
 30
0.0
  3
_Open30
  1

  0
LINE
  5
39E
330
39D
100
AcDbEntity
  8
0
  6
ByBlock
 62
     0
370
    -2
100
AcDbLine
 10
-1.0
 20
0.26794919
 30
0.0
 11
0.0
 21
0.0
 31
0.0
  0
LINE
  5
39F
330
39D
100
AcDbEntity
  8
0
  6
ByBlock
 62
     0
370
    -2
100
AcDbLine
 10
0.0
 20
0.0
 30
0.0
 11
-1.0
 21
-0.26794919
 31
0.0
  0
LINE
  5
3A0
330
39D
100
AcDbEntity
  8
0
  6
ByBlock
 62
     0
370
    -2
100
AcDbLine
 10
0.0
 20
0.0
 30
0.0
 11
-1.0
 21
0.0
 31
0.0
  0
ENDBLK
  5
3A2
330
39D
100
AcDbEntity
  8
0
100
AcDbBlockEnd
  0
BLOCK
  5
21A5
330
21A4
100
AcDbEntity
  8
0
100
AcDbBlockBegin
  2
_ACMNONE
 70
     0
 10
0.0
 20
0.0
 30
0.0
  3
_ACMNONE
  1

  0
LINE
  5
21A7
330
21A4
100
AcDbEntity
  8
0
 62
     0
100
AcDbLine
 10
-1.0
 20
0.0
 30
0.0
 11
0.0
 21
0.0
 31
0.0
  0
ENDBLK
  5
21A6
330
21A4
100
AcDbEntity
  8
0
100
AcDbBlockEnd
  0
BLOCK
  5
21A9
330
21A8
100
AcDbEntity
  8
0
100
AcDbBlockBegin
  2
_ACMFILLED15
 70
     0
 10
0.0
 20
0.0
 30
0.0
  3
_ACMFILLED15
  1

  0
TRACE
  5
21AB
330
21A8
100
AcDbEntity
  8
0
 62
     0
100
AcDbTrace
 10
-1.0
 20
-0.131652497
 30
0.0
 11
-1.0
 21
0.131652497
 31
0.0
 12
0.0
 22
0.0
 32
0.0
 13
0.0
 23
0.0
 33
0.0
  0
ENDBLK
  5
21AA
330
21A8
100
AcDbEntity
  8
0
100
AcDbBlockEnd
  0
BLOCK
  5
21BB
330
21BA
100
AcDbEntity
  8
0
100
AcDbBlockBegin
  2
_ACMOPEN15
 70
     0
 10
0.0
 20
0.0
 30
0.0
  3
_ACMOPEN15
  1

  0
LINE
  5
21BD
330
21BA
100
AcDbEntity
  8
0
 62
     0
100
AcDbLine
 10
-1.0
 20
0.0
 30
0.0
 11
0.0
 21
0.0
 31
0.0
  0
LINE
  5
21BE
330
21BA
100
AcDbEntity
  8
0
 62
     0
100
AcDbLine
 10
-1.0
 20
-0.131652497
 30
0.0
 11
0.0
 21
0.0
 31
0.0
  0
LINE
  5
21BF
330
21BA
100
AcDbEntity
  8
0
 62
     0
100
AcDbLine
 10
0.0
 20
0.0
 30
0.0
 11
-1.0
 21
0.131652497
 31
0.0
  0
ENDBLK
  5
21BC
330
21BA
100
AcDbEntity
  8
0
100
AcDbBlockEnd
  0
BLOCK
  5
24A2
330
24A1
100
AcDbEntity
  8
0
100
AcDbBlockBegin
  2
_ACMFILLEDHALF
 70
     0
 10
0.0
 20
0.0
 30
0.0
  3
_ACMFILLEDHALF
  1

  0
TRACE
  5
24A3
330
24A1
100
AcDbEntity
  8
0
 62
     0
100
AcDbTrace
 10
-0.8
 20
0.0
 30
0.0
 11
-1.0
 21
0.166666666
 31
0.0
 12
0.0
 22
0.0
 32
0.0
 13
0.0
 23
0.0
 33
0.0
  0
LINE
  5
24A4
330
24A1
100
AcDbEntity
  8
0
 62
     0
100
AcDbLine
 10
-1.0
 20
0.0
 30
0.0
 11
-0.8
 21
0.0
 31
0.0
  0
ENDBLK
  5
24A5
330
24A1
100
AcDbEntity
  8
0
100
AcDbBlockEnd
  0
BLOCK
  5
25B9
330
24D0
100
AcDbEntity
  8
0
100
AcDbBlockBegin
  2
A$C55A73825
 70
     0
 10
0.0
 20
0.0
 30
0.0
  3
A$C55A73825
  1

  0
LINE
  5
24D1
330
24D0
100
AcDbEntity
  8
AM_7
100
AcDbLine
 10
0.0
 20
6.064408140494407
 30
0.0
 11
0.0
 21
-1.30862835407558
 31
0.0
1001
GENIUS_GENODEF_13
1002
{
1000
HIER
1070
     0
1002
}
1002
{
1000
MANEDIT
1070
     0
1002
}
1002
{
1000
NOSEL
1070
     0
1002
}
1002
{
1000
BEHIND
1070
     0
1002
}
1002
{
1000
OTHER
1070
     0
1002
}
1002
{
1000
REACTOR
1002
}
1001
GENIUS_GENOBJ-N-CEN_13
1002
{
1000
OWNER
1000
GEN
1002
}
1001
GENIUS_GENCEN_19
1002
{
1040
1.294408140494453
1002
}
  0
LINE
  5
24D2
330
24D0
100
AcDbEntity
  8
AM_7
100
AcDbLine
 10
0.0
 20
-9.400598358199601
 30
0.0
 11
0.0
 21
-1.410471881050625
 31
0.0
  0
LINE
  5
24D3
330
24D0
100
AcDbEntity
  8
0
 62
    51
100
AcDbLine
 10
-0.6400462107912972
 20
-4.008929717584848
 30
0.0
 11
-0.6400462107912972
 21
-6.970000000000027
 31
0.0
  0
LINE
  5
24D4
330
24D0
100
AcDbEntity
  8
0
 62
    51
100
AcDbLine
 10
0.6299537892086847
 20
-6.970000000000034
 30
0.0
 11
0.6299537892086847
 21
-4.130000000000038
 31
0.0
  0
LINE
  5
24D5
330
24D0
100
AcDbEntity
  8
0
 62
    51
 48
0.5
100
AcDbLine
 10
0.6299537892087131
 20
-6.970000000000027
 30
0.0
 11
-0.6400462107912688
 21
-6.970000000000027
 31
0.0
1001
DIMEXPLODE
1070
     0
  0
LINE
  5
24D6
330
24D0
100
AcDbEntity
  8
0
 62
    51
100
AcDbLine
 10
-0.3400462107912574
 20
-7.270000000000038
 30
0.0
 11
0.3299537892087017
 21
-7.270000000000038
 31
0.0
  0
LINE
  5
24D7
330
24D0
100
AcDbEntity
  8
0
 62
    51
 48
0.5
100
AcDbLine
 10
0.6299537892087131
 20
-6.970000000000027
 30
0.0
 11
0.3299537892087017
 21
-7.270000000000038
 31
0.0
1001
DIMEXPLODE
1070
     0
1001
GENIUS_GENFIL_13
1070
     1
1040
0.2
1040
0.8333333333333332
1040
0.3
1040
45.0
1002
{
1002
}
1001
GENIUS_GENODEF_13
1002
{
1000
HIER
1070
     0
1002
}
1002
{
1000
MANEDIT
1070
     0
1002
}
1002
{
1000
NOSEL
1070
     0
1002
}
1002
{
1000
BEHIND
1070
     0
1002
}
1002
{
1000
OTHER
1070
     0
1002
}
1002
{
1000
REACTOR
1002
}
1001
GENIUS_GENOBJ-N-CHA_13
1002
{
1000
OWNER
1000
GEN
1002
}
  0
LINE
  5
24D8
330
24D0
100
AcDbEntity
  8
0
 62
    51
 48
0.5
100
AcDbLine
 10
-0.6400462107912688
 20
-6.970000000000027
 30
0.0
 11
-0.3400462107912574
 21
-7.270000000000038
 31
0.0
1001
DIMEXPLODE
1070
     0
1001
GENIUS_GENFIL_13
1070
     1
1040
0.2
1040
0.8333333333333332
1040
0.3
1040
45.0
1002
{
1002
}
1001
GENIUS_GENODEF_13
1002
{
1000
HIER
1070
     0
1002
}
1002
{
1000
MANEDIT
1070
     0
1002
}
1002
{
1000
NOSEL
1070
     0
1002
}
1002
{
1000
BEHIND
1070
     0
1002
}
1002
{
1000
OTHER
1070
     0
1002
}
1002
{
1000
REACTOR
1002
}
1001
GENIUS_GENOBJ-N-CHA_13
1002
{
1000
OWNER
1000
GEN
1002
}
  0
LINE
  5
24D9
330
24D0
100
AcDbEntity
  8
0
 62
   131
100
AcDbLine
 10
-1.82000000000005
 20
-4.030000000000029
 30
0.0
 11
-0.6400462107912972
 21
-4.030000000000029
 31
0.0
  0
LINE
  5
24DA
330
24D0
100
AcDbEntity
  8
0
 62
   131
100
AcDbLine
 10
-2.020000000000038
 20
-3.83000000000004
 30
0.0
 11
-1.82000000000005
 21
-4.030000000000029
 31
0.0
1001
GENIUS_GENFIL_13
1070
     0
1040
0.2
1040
0.2
1040
0.0
1040
0.0
1002
{
1002
}
1001
GENIUS_GENOBJ-N-CHA_13
1002
{
1000
OWNER
1000
GEN
1002
}
1001
GENIUS_GENODEF_13
1002
{
1000
HIER
1070
     0
1002
}
1002
{
1000
MANEDIT
1070
     0
1002
}
1002
{
1000
NOSEL
1070
     0
1002
}
1002
{
1000
BEHIND
1070
     0
1002
}
1002
{
1000
OTHER
1070
     0
1002
}
1002
{
1000
REACTOR
1002
}
  0
HATCH
  5
24DB
330
24D0
100
AcDbEntity
  8
AM_8
 62
   131
100
AcDbHatch
 10
0.0
 20
0.0
 30
0.0
210
0.0
220
0.0
230
1.0
  2
_U
 70
     0
 71
     0
 91
        1
 92
        1
 93
       22
 72
     1
 10
-0.6650000000000205
 20
-4.003266834350604
 11
-0.7104580871250406
 21
-3.993027931706244
 72
     1
 10
-0.7104580871250406
 20
-3.993027931706244
 11
-0.7883665278038095
 21
-3.974463040907636
 72
     1
 10
-0.7883665278038095
 20
-3.974463040907636
 11
-0.8659492800262995
 21
-3.954841590498787
 72
     1
 10
-0.8659492800262995
 20
-3.954841590498787
 11
-0.9431737749443129
 21
-3.934057924519287
 72
     1
 10
-0.9431737749443129
 20
-3.934057924519287
 11
-1.020007443715712
 21
-3.912006387006755
 72
     1
 10
-1.020007443715712
 20
-3.912006387006755
 11
-1.096417717493309
 21
-3.888581322001179
 72
     1
 10
-1.096417717493309
 20
-3.888581322001179
 11
-1.172372027431109
 21
-3.863677073541239
 72
     1
 10
-1.172372027431109
 20
-3.863677073541239
 11
-1.247839480172707
 21
-3.837193058581185
 72
     1
 10
-1.247839480172707
 20
-3.837193058581185
 11
-1.322892257087715
 21
-3.809340775688859
 72
     1
 10
-1.322892257087715
 20
-3.809340775688859
 11
-1.397763786405803
 21
-3.78081993411758
 72
     1
 10
-1.397763786405803
 20
-3.78081993411758
 11
-1.472701541630179
 21
-3.752372768236689
 72
     1
 10
-1.472701541630179
 20
-3.752372768236689
 11
-1.547952996233298
 21
-3.724741512423449
 72
     1
 10
-1.547952996233298
 20
-3.724741512423449
 11
-1.62376562370845
 21
-3.698668401050262
 72
     1
 10
-1.62376562370845
 20
-3.698668401050262
 11
-1.700386886364043
 21
-3.67489564763558
 72
     1
 10
-1.700386886364043
 20
-3.67489564763558
 11
-1.777986061917381
 21
-3.654019621220491
 72
     1
 10
-1.777986061917381
 20
-3.654019621220491
 11
-1.856467252638971
 21
-3.636142036152769
 72
     1
 10
-1.856467252638971
 20
-3.636142036152769
 11
-1.93567839521178
 21
-3.621259836254921
 72
     1
 10
-1.93567839521178
 20
-3.621259836254921
 11
-2.020000000000038
 21
-3.608694537722655
 72
     1
 10
-2.020000000000038
 20
-3.608694537722655
 11
-2.020000000000038
 21
-3.83000000000004
 72
     1
 10
-2.020000000000038
 20
-3.83000000000004
 11
-1.82000000000005
 21
-4.030000000000029
 72
     1
 10
-1.82000000000005
 20
-4.030000000000029
 11
-0.6650000000000205
 21
-4.030000000000029
 72
     1
 10
-0.6650000000000205
 20
-4.030000000000029
 11
-0.6650000000000205
 21
-4.003266834350604
 97
        0
 75
     0
 76
     0
 52
-45.00000000000001
 41
0.25
 77
     0
 78
     1
 53
315.0
 43
-11.89415198185881
 44
4.721952438647662
 45
0.1767766952966369
 46
0.1767766952966368
 79
     0
 98
        1
 10
11.89415198185879
 20
4.721952438647662
1001
GENIUS_GENODEF_13
1002
{
1000
HIER
1070
     0
1002
}
1002
{
1000
MANEDIT
1070
     0
1002
}
1002
{
1000
NOSEL
1070
     0
1002
}
1002
{
1000
BEHIND
1070
     0
1002
}
1002
{
1000
OTHER
1070
     0
1002
}
1002
{
1000
REACTOR
1002
}
1001
GENIUS_GENOBJ-N-HTC_13
1002
{
1000
OWNER
1000
GEN
1002
}
1001
GENIUS_GENHATCH_13
1002
{
1000
DATA
1040
45.0
1042
-2.5
1000
_U
1070
     0
1011
-1.139618293593514
1021
-2.635396567466074
1031
0.0
1002
}
1002
{
1000
UCS
1010
0.0
1020
0.0
1030
0.0
1010
1.0
1020
0.0
1030
0.0
1010
0.0
1020
1.0
1030
0.0
1002
}
  0
LINE
  5
24DC
330
24D0
100
AcDbEntity
  8
0
 62
   131
100
AcDbLine
 10
-0.6650000000000205
 20
-4.030000000000029
 30
0.0
 11
-0.6650000000000205
 21
-4.003383306374203
 31
0.0
  0
LINE
  5
24DD
330
24D0
100
AcDbEntity
  8
0
 62
   131
100
AcDbLine
 10
-2.020000000000038
 20
-3.83000000000004
 30
0.0
 11
-2.020000000000038
 21
-3.608786111549505
 31
0.0
  0
LINE
  5
24DE
330
24D0
100
AcDbEntity
  8
0
 62
     6
100
AcDbLine
 10
7.389999999999993
 20
-21.92459429854595
 30
0.0
 11
7.389999999999993
 21
-28.62459429854982
 31
0.0
  0
LINE
  5
24DF
330
24D0
100
AcDbEntity
  8
0
 62
     6
100
AcDbLine
 10
-3.610000000000006
 20
-21.92459429854595
 30
0.0
 11
-3.610000000000006
 21
-28.62459429854982
 31
0.0
  0
LINE
  5
24E0
330
24D0
100
AcDbEntity
  8
0
 62
     6
100
AcDbLine
 10
3.049999999999947
 20
-28.32459429854207
 30
0.0
 11
2.029999999999965
 21
-28.32459429854207
 31
0.0
  0
LINE
  5
24E1
330
24D0
100
AcDbEntity
  8
0
 62
     6
100
AcDbLine
 10
-2.030000000000029
 20
-28.32459429854211
 30
0.0
 11
-3.050000000000004
 21
-28.32459429854207
 31
0.0
  0
LINE
  5
24E2
330
24D0
100
AcDbEntity
  8
0
 62
     6
100
AcDbLine
 10
-3.610000000000013
 20
-21.92459429854206
 30
0.0
 11
7.389999999999986
 21
-21.92459429854206
 31
0.0
  0
LINE
  5
24E3
330
24D0
100
AcDbEntity
  8
AM_7
100
AcDbLine
 10
-4.215251711248271
 20
-25.27459429854163
 30
0.0
 11
16.97326013462447
 21
-25.27459429854952
 31
0.0
1001
GENIUS_GENODEF_13
1002
{
1000
HIER
1070
     0
1002
}
1002
{
1000
MANEDIT
1070
     0
1002
}
1002
{
1000
NOSEL
1070
     0
1002
}
1002
{
1000
BEHIND
1070
     0
1002
}
1002
{
1000
OTHER
1070
     0
1002
}
1002
{
1000
REACTOR
1002
}
1001
GENIUS_GENOBJ-N-CEN_13
1002
{
1000
OWNER
1000
GEN
1002
}
1001
GENIUS_GENCEN_19
1002
{
1040
3.118999999999999
1002
}
  0
LINE
  5
24E4
330
24D0
100
AcDbEntity
  8
0
 62
     6
100
AcDbLine
 10
2.029999999999972
 20
-23.24459429854211
 30
0.0
 11
2.029999999999972
 21
-22.22459429854211
 31
0.0
  0
LINE
  5
24E5
330
24D0
100
AcDbEntity
  8
0
 62
     6
100
AcDbLine
 10
-3.610000000000006
 20
-23.24459429854211
 30
0.0
 11
-1.25
 21
-23.24459429854211
 31
0.0
  0
LINE
  5
24E6
330
24D0
100
AcDbEntity
  8
0
 62
     6
100
AcDbLine
 10
1.25
 20
-23.24459429854207
 30
0.0
 11
7.389999999999986
 21
-23.24459429854222
 31
0.0
  0
LINE
  5
24E7
330
24D0
100
AcDbEntity
  8
0
 62
     6
100
AcDbLine
 10
-2.030000000000029
 20
-23.24459429854211
 30
0.0
 11
-2.030000000000029
 21
-22.22459429854211
 31
0.0
  0
LINE
  5
24E8
330
24D0
100
AcDbEntity
  8
0
 62
     6
100
AcDbLine
 10
3.049999999999954
 20
-23.24459429854211
 30
0.0
 11
3.049999999999954
 21
-22.22459429854211
 31
0.0
  0
LINE
  5
24E9
330
24D0
100
AcDbEntity
  8
AM_7
 48
0.5
100
AcDbLine
 10
-2.54000000000002
 20
-21.67459421271148
 30
0.0
 11
-2.54000000000002
 21
-23.79459438437274
 31
0.0
1001
GENIUS_GENOBJ-N-CEN_13
1002
{
1000
OWNER
1000
GEN
1002
}
1001
GENIUS_GENODEF_13
1002
{
1000
HIER
1070
     0
1002
}
1002
{
1000
MANEDIT
1070
     0
1002
}
1002
{
1000
NOSEL
1070
     0
1002
}
1002
{
1000
BEHIND
1070
     0
1002
}
1002
{
1000
OTHER
1070
     0
1002
}
1002
{
1000
REACTOR
1002
}
1001
GENIUS_GENCEN_19
1002
{
1040
0.09200000762939
1002
}
  0
LINE
  5
24EA
330
24D0
100
AcDbEntity
  8
AM_7
 48
0.5
100
AcDbLine
 10
-3.690833227345166
 20
-22.73459429854212
 30
0.0
 11
3.690833227345137
 21
-22.73459429854212
 31
0.0
1001
GENIUS_GENODEF_13
1002
{
1000
HIER
1070
     0
1002
}
1002
{
1000
MANEDIT
1070
     0
1002
}
1002
{
1000
NOSEL
1070
     0
1002
}
1002
{
1000
BEHIND
1070
     0
1002
}
1002
{
1000
OTHER
1070
     0
1002
}
1002
{
1000
REACTOR
1002
}
1001
GENIUS_GENOBJ-N-CEN_13
1002
{
1000
OWNER
1000
GEN
1002
}
1001
GENIUS_GENCEN_19
1002
{
1040
0.0920000076293917
1002
}
  0
LINE
  5
24EB
330
24D0
100
AcDbEntity
  8
AM_7
 48
0.5
100
AcDbLine
 10
2.539999999999963
 20
-21.67459421271148
 30
0.0
 11
2.539999999999963
 21
-23.79459438437274
 31
0.0
1001
GENIUS_GENOBJ-N-CEN_13
1002
{
1000
OWNER
1000
GEN
1002
}
1001
GENIUS_GENODEF_13
1002
{
1000
HIER
1070
     0
1002
}
1002
{
1000
MANEDIT
1070
     0
1002
}
1002
{
1000
NOSEL
1070
     0
1002
}
1002
{
1000
BEHIND
1070
     0
1002
}
1002
{
1000
OTHER
1070
     0
1002
}
1002
{
1000
REACTOR
1002
}
1001
GENIUS_GENCEN_19
1002
{
1040
0.09200000762939
1002
}
  0
LINE
  5
24EC
330
24D0
100
AcDbEntity
  8
0
 62
     6
100
AcDbLine
 10
2.029999999999972
 20
-27.30459429854211
 30
0.0
 11
2.029999999999972
 21
-28.32459429854211
 31
0.0
  0
LINE
  5
24ED
330
24D0
100
AcDbEntity
  8
0
 62
     6
100
AcDbLine
 10
-2.030000000000029
 20
-27.30459429854211
 30
0.0
 11
-2.030000000000029
 21
-28.32459429854211
 31
0.0
  0
LINE
  5
24EE
330
24D0
100
AcDbEntity
  8
0
 62
     6
100
AcDbLine
 10
3.049999999999954
 20
-27.30459429854211
 30
0.0
 11
3.049999999999954
 21
-28.32459429854211
 31
0.0
  0
LINE
  5
24EF
330
24D0
100
AcDbEntity
  8
AM_7
 48
0.5
100
AcDbLine
 10
-2.54000000000002
 20
-28.87459438437274
 30
0.0
 11
-2.54000000000002
 21
-26.75459421271148
 31
0.0
1001
GENIUS_GENOBJ-N-CEN_13
1002
{
1000
OWNER
1000
GEN
1002
}
1001
GENIUS_GENODEF_13
1002
{
1000
HIER
1070
     0
1002
}
1002
{
1000
MANEDIT
1070
     0
1002
}
1002
{
1000
NOSEL
1070
     0
1002
}
1002
{
1000
BEHIND
1070
     0
1002
}
1002
{
1000
OTHER
1070
     0
1002
}
1002
{
1000
REACTOR
1002
}
1001
GENIUS_GENCEN_19
1002
{
1040
0.09200000762939
1002
}
  0
LINE
  5
24F0
330
24D0
100
AcDbEntity
  8
AM_7
 48
0.5
100
AcDbLine
 10
2.539999999999963
 20
-28.87459438437274
 30
0.0
 11
2.539999999999963
 21
-26.75459421271148
 31
0.0
1001
GENIUS_GENOBJ-N-CEN_13
1002
{
1000
OWNER
1000
GEN
1002
}
1001
GENIUS_GENODEF_13
1002
{
1000
HIER
1070
     0
1002
}
1002
{
1000
MANEDIT
1070
     0
1002
}
1002
{
1000
NOSEL
1070
     0
1002
}
1002
{
1000
BEHIND
1070
     0
1002
}
1002
{
1000
OTHER
1070
     0
1002
}
1002
{
1000
REACTOR
1002
}
1001
GENIUS_GENCEN_19
1002
{
1040
0.09200000762939
1002
}
  0
LINE
  5
24F1
330
24D0
100
AcDbEntity
  8
0
 62
     6
100
AcDbLine
 10
-3.610000000000006
 20
-27.30459429854211
 30
0.0
 11
-1.25
 21
-27.30459429854211
 31
0.0
  0
LINE
  5
24F2
330
24D0
100
AcDbEntity
  8
0
 62
     6
100
AcDbLine
 10
1.25
 20
-27.30459429854211
 30
0.0
 11
7.389999999999986
 21
-27.30459429854211
 31
0.0
  0
LINE
  5
24F3
330
24D0
100
AcDbEntity
  8
0
 62
     6
100
AcDbLine
 10
1.25
 20
-23.24459429854207
 30
0.0
 11
1.25
 21
-21.92459429854367
 31
0.0
  0
LINE
  5
24F4
330
24D0
100
AcDbEntity
  8
0
 62
     6
100
AcDbLine
 10
-1.25
 20
-28.6245942985434
 30
0.0
 11
-1.25
 21
-27.30459429854211
 31
0.0
  0
LINE
  5
24F5
330
24D0
100
AcDbEntity
  8
0
 62
     6
100
AcDbLine
 10
1.25
 20
-28.62459429854526
 30
0.0
 11
1.25
 21
-27.30459429854211
 31
0.0
  0
LINE
  5
24F6
330
24D0
100
AcDbEntity
  8
0
 62
     6
100
AcDbLine
 10
-1.25
 20
-23.24459429854207
 30
0.0
 11
-1.25
 21
-21.92459429854206
 31
0.0
  0
LINE
  5
24F7
330
24D0
100
AcDbEntity
  8
AM_7
 48
0.5
100
AcDbLine
 10
-3.690833227345166
 20
-27.81459429854317
 30
0.0
 11
3.690833227345137
 21
-27.81459429854317
 31
0.0
1001
GENIUS_GENODEF_13
1002
{
1000
HIER
1070
     0
1002
}
1002
{
1000
MANEDIT
1070
     0
1002
}
1002
{
1000
NOSEL
1070
     0
1002
}
1002
{
1000
BEHIND
1070
     0
1002
}
1002
{
1000
OTHER
1070
     0
1002
}
1002
{
1000
REACTOR
1002
}
1001
GENIUS_GENOBJ-N-CEN_13
1002
{
1000
OWNER
1000
GEN
1002
}
1001
GENIUS_GENCEN_19
1002
{
1040
0.0920000076293917
1002
}
  0
CIRCLE
  5
24F8
330
24D0
100
AcDbEntity
  8
0
 62
     6
100
AcDbCircle
 10
0.0
 20
-25.2745942985432
 30
0.0
 40
2.049999999999982
  0
LINE
  5
24F9
330
24D0
100
AcDbEntity
  8
AM_7
100
AcDbLine
 10
-3.750412603730829
 20
0.0
 30
0.0
 11
20.97326013462447
 21
-0.0000000000000071
 31
0.0
1001
GENIUS_GENODEF_13
1002
{
1000
HIER
1070
     0
1002
}
1002
{
1000
MANEDIT
1070
     0
1002
}
1002
{
1000
NOSEL
1070
     0
1002
}
1002
{
1000
BEHIND
1070
     0
1002
}
1002
{
1000
OTHER
1070
     0
1002
}
1002
{
1000
REACTOR
1002
}
1001
GENIUS_GENOBJ-N-CEN_13
1002
{
1000
OWNER
1000
GEN
1002
}
1001
GENIUS_GENCEN_19
1002
{
1040
2.931
1002
}
  0
LINE
  5
24FA
330
24D0
100
AcDbEntity
  8
0
 62
     3
100
AcDbLine
 10
7.589999999991931
 20
-27.94959429854323
 30
0.0
 11
7.389999999991857
 21
-27.94959429854323
 31
0.0
  0
LINE
  5
24FB
330
24D0
100
AcDbEntity
  8
AM_7
100
AcDbLine
 10
0.0000000000007958
 20
-21.61459429854208
 30
0.0
 11
-0.0000000000089244
 21
-28.93459429854207
 31
0.0
1001
GENIUS_GENOBJ-N-CEN_13
1002
{
1000
OWNER
1000
GEN
1002
}
1001
GENIUS_GENODEF_13
1002
{
1000
HIER
1070
     0
1002
}
1002
{
1000
MANEDIT
1070
     0
1002
}
1002
{
1000
NOSEL
1070
     0
1002
}
1002
{
1000
BEHIND
1070
     0
1002
}
1002
{
1000
OTHER
1070
     0
1002
}
1002
{
1000
REACTOR
1002
}
1001
GENIUS_GENCEN_19
1002
{
1040
0.6099999999999995
1002
}
  0
CIRCLE
  5
24FC
330
24D0
100
AcDbEntity
  8
0
 48
0.1
100
AcDbCircle
 10
-0.0000000000040643
 20
-25.27459429854207
 30
0.0
 40
0.3400462107872002
  0
CIRCLE
  5
24FD
330
24D0
100
AcDbEntity
  8
0
 48
0.1
100
AcDbCircle
 10
-0.0000000000040643
 20
-25.27459429854207
 30
0.0
 40
0.6400487908009002
  0
CIRCLE
  5
24FE
330
24D0
100
AcDbEntity
  8
0
 48
0.1
100
AcDbCircle
 10
-0.0000000000040643
 20
-25.2745942985432
 30
0.0
 40
0.6650025353662091
  0
CIRCLE
  5
24FF
330
24D0
100
AcDbEntity
  8
0
 48
0.1
100
AcDbCircle
 10
0.0
 20
-25.2745942985432
 30
0.0
 40
1.820000000000021
  0
CIRCLE
  5
2500
330
24D0
100
AcDbEntity
  8
0
 48
0.1
100
AcDbCircle
 10
0.0
 20
-25.2745942985432
 30
0.0
 40
2.02000000000001
  0
LINE
  5
2501
330
24D0
100
AcDbEntity
  8
0
 62
     3
100
AcDbLine
 10
7.590000000000031
 20
-2.675000000000011
 30
0.0
 11
7.389999999999957
 21
-2.675000000000011
 31
0.0
  0
LINE
  5
2502
330
24D0
100
AcDbEntity
  8
0
 62
     3
100
AcDbLine
 10
7.389999999999972
 20
2.674999999999968
 30
0.0
 11
7.590000000000031
 21
2.674999999999982
 31
0.0
  0
LINE
  5
2503
330
24D0
100
AcDbEntity
  8
0
 62
     3
100
AcDbLine
 10
7.590000000000031
 20
-4.000000000000014
 30
0.0
 11
7.590000000000031
 21
0.0
 31
0.0
  0
LINE
  5
2504
330
24D0
100
AcDbEntity
  8
0
 62
     3
100
AcDbLine
 10
7.590000000000031
 20
0.0
 30
0.0
 11
7.590000000000031
 21
3.999999999999985
 31
0.0
  0
LINE
  5
2505
330
24D0
100
AcDbEntity
  8
0
 62
     6
100
AcDbLine
 10
1.25
 20
-4.13000000000003
 30
0.0
 11
0.0
 21
-4.130000000000023
 31
0.0
  0
LINE
  5
2506
330
24D0
100
AcDbEntity
  8
0
 62
     6
100
AcDbLine
 10
-0.6400462107912972
 20
-4.130000000000023
 30
0.0
 11
-1.999599960000011
 21
-4.130000000000023
 31
0.0
  0
LINE
  5
2507
330
24D0
100
AcDbEntity
  8
0
 62
     6
100
AcDbLine
 10
7.389999999999957
 20
0.0
 30
0.0
 11
7.389999999999993
 21
-4.770000000000024
 31
0.0
  0
LINE
  5
2508
330
24D0
100
AcDbEntity
  8
0
 62
     6
100
AcDbLine
 10
7.389999999999986
 20
4.769999999999967
 30
0.0
 11
7.389999999999986
 21
0.0
 31
0.0
  0
LINE
  5
2509
330
24D0
100
AcDbEntity
  8
0
 62
     6
100
AcDbLine
 10
-3.610000000000006
 20
4.769999999999967
 30
0.0
 11
7.389999999999986
 21
4.769999999999967
 31
0.0
  0
HATCH
  5
250A
330
24D0
100
AcDbEntity
  8
0
100
AcDbHatch
 10
0.0
 20
0.0
 30
0.0
210
0.0
220
0.0
230
1.0
  2
ANSI31
 70
     0
 71
     1
 91
        4
 92
        5
 93
        5
 72
     1
 10
-2.050000000000011
 20
-3.739546840072129
 11
-2.050000000000011
 21
-3.61202971032182
 72
     4
 94
        3
 73
     0
 74
     0
 95
        9
 96
        5
 40
0.0
 40
0.0
 40
0.0
 40
0.0
 40
0.419054345316035
 40
1.56180162136602
 40
1.56180162136602
 40
1.56180162136602
 40
1.56180162136602
 10
-2.050000000000025
 20
-3.612029710321827
 10
-2.189537743823798
 20
-3.598265744745177
 10
-2.716942447265253
 20
-3.58868028752618
 10
-3.232658297389804
 20
-3.652574359948729
 10
-3.610000000000006
 20
-3.699324713013893
 72
     1
 10
-3.610000000000006
 20
-3.699324713013893
 11
-3.610000000000006
 21
-4.130000000000023
 72
     1
 10
-3.610000000000006
 20
-4.130000000000023
 11
-2.631210686042948
 21
-4.130000000000023
 72
     1
 10
-2.631210686042948
 20
-4.130000000000023
 11
-2.050000000000011
 21
-3.739546840072129
 97
        4
330
2518
330
2579
330
258E
330
250B
 92
        6
 72
     0
 73
     1
 93
        4
 10
-2.050000000000011
 20
-3.780611530680005
 10
-2.221217170891911
 20
-4.130000000000023
 10
-2.150000000000034
 20
-4.130000000000023
 10
-2.050000000000011
 20
-4.030000000000015
 97
        3
330
250B
330
2517
330
2518
 92
       22
 72
     0
 73
     1
 93
        4
 10
-2.050000000000011
 20
-3.780611530680005
 10
-2.050000000000011
 20
-3.753774126443097
 10
-2.378284605083493
 20
-4.130000000000023
 10
-2.221217170891911
 20
-4.130000000000023
 97
        2
330
2518
330
250B
 92
       23
 72
     0
 73
     1
 93
        4
 10
-2.050000000000011
 20
-3.753774126443097
 10
-2.050000000000011
 20
-3.739546840072129
 10
-2.631210686042948
 20
-4.130000000000023
 10
-2.378284605083493
 20
-4.130000000000023
 97
        2
330
2518
330
250B
 75
     1
 76
     1
 52
0.0
 41
0.1
 77
     0
 78
     1
 53
45.0
 43
-53.74727197919079
 44
-63.97324789977826
 45
-0.2245064030267288
 46
0.2245064030267288
 79
     0
 47
0.0089908711816497
 98
        4
 10
-2.857208610573898
 20
-3.905911404580322
 10
-2.108747136716338
 20
-3.986035277627095
 10
-2.200724356609917
 20
-3.976432042202603
 10
-2.331140244029107
 20
-3.938018799538284
1001
GRADIENTCOLOR1ACI
1070
     5
1001
GRADIENTCOLOR2ACI
1070
     2
1001
ACAD
1010
0.0
1020
0.0
1030
0.0
  0
LINE
  5
250B
102
{ACAD_REACTORS
330
250A
102
}
330
24D0
100
AcDbEntity
  8
0
 62
     6
100
AcDbLine
 10
-1.999599960000011
 20
-4.130000000000023
 30
0.0
 11
-3.610000000000006
 21
-4.130000000000023
 31
0.0
  0
LINE
  5
250C
330
24D0
100
AcDbEntity
  8
0
 62
     6
100
AcDbLine
 10
1.25
 20
-4.130000000000023
 30
0.0
 11
1.25
 21
-4.770000000000024
 31
0.0
  0
LINE
  5
250D
330
24D0
100
AcDbEntity
  8
0
 62
     6
100
AcDbLine
 10
3.049999999999968
 20
-7.270000000000017
 30
0.0
 11
3.049999999999954
 21
-4.770000000000017
 31
0.0
  0
LINE
  5
250E
330
24D0
100
AcDbEntity
  8
0
 62
     6
100
AcDbLine
 10
3.049999999999954
 20
-7.270000000000024
 30
0.0
 11
2.029999999999972
 21
-7.270000000000024
 31
0.0
  0
LINE
  5
250F
330
24D0
100
AcDbEntity
  8
0
 62
     6
100
AcDbLine
 10
2.029999999999972
 20
-7.270000000000024
 30
0.0
 11
2.029999999999972
 21
-4.770000000000024
 31
0.0
  0
LINE
  5
2510
330
24D0
100
AcDbEntity
  8
0
 62
     6
100
AcDbLine
 10
7.389999999999993
 20
-4.770000000000024
 30
0.0
 11
1.25
 21
-4.770000000000024
 31
0.0
  0
LINE
  5
2511
330
24D0
100
AcDbEntity
  8
0
 62
     6
100
AcDbLine
 10
-1.25
 20
-4.770000000000024
 30
0.0
 11
-2.030000000000029
 21
-4.770000000000024
 31
0.0
  0
LINE
  5
2512
330
24D0
100
AcDbEntity
  8
0
 62
     6
100
AcDbLine
 10
-2.030000000000029
 20
-7.270000000000024
 30
0.0
 11
-3.050000000000011
 21
-7.270000000000024
 31
0.0
  0
LINE
  5
2513
330
24D0
100
AcDbEntity
  8
0
 62
     6
100
AcDbLine
 10
-2.030000000000029
 20
-7.270000000000024
 30
0.0
 11
-2.030000000000029
 21
-4.770000000000024
 31
0.0
  0
LINE
  5
2514
330
24D0
100
AcDbEntity
  8
0
 62
     6
100
AcDbLine
 10
-1.25
 20
-4.770000000000024
 30
0.0
 11
-1.25
 21
-4.130000000000023
 31
0.0
  0
LINE
  5
2515
330
24D0
100
AcDbEntity
  8
0
 62
     6
100
AcDbLine
 10
-3.050000000000011
 20
-4.769999999999996
 30
0.0
 11
-3.050000000000004
 21
-7.270000000000017
 31
0.0
  0
LINE
  5
2516
330
24D0
100
AcDbEntity
  8
0
 62
     6
100
AcDbLine
 10
-1.82000000000005
 20
-4.030000000000029
 30
0.0
 11
-2.050000000000011
 21
-4.030000000000015
 31
0.0
  0
LINE
  5
2517
102
{ACAD_REACTORS
330
250A
102
}
330
24D0
100
AcDbEntity
  8
0
 62
     6
100
AcDbLine
 10
-2.150000000000034
 20
-4.130000000000023
 30
0.0
 11
-2.050000000000011
 21
-4.030000000000015
 31
0.0
  0
LINE
  5
2518
102
{ACAD_REACTORS
330
250A
102
}
330
24D0
100
AcDbEntity
  8
0
 62
     6
100
AcDbLine
 10
-2.050000000000011
 20
-3.605167069466553
 30
0.0
 11
-2.050000000000011
 21
-4.030000000000015
 31
0.0
  0
HATCH
  5
2519
330
24D0
100
AcDbEntity
  8
AM_8
 62
     4
100
AcDbHatch
 10
0.0
 20
0.0
 30
0.0
210
0.0
220
0.0
230
1.0
  2
ANSI34
 70
     0
 71
     0
 91
        1
 92
        5
 93
        4
 72
     1
 10
14.61000000000005
 20
2.014998644590434
 11
13.9515418746687
 21
2.014998644590434
 72
     4
 94
        3
 73
     0
 74
     0
 95
        9
 96
        5
 40
1.422304813954873
 40
1.422304813954873
 40
1.422304813954873
 40
1.422304813954873
 40
1.898387811583983
 40
2.842597918241551
 40
2.842597918241551
 40
2.842597918241551
 40
2.842597918241551
 10
13.9515418746687
 20
2.01499864459042
 10
13.95492538183868
 20
1.856644050468062
 10
13.86145946727385
 20
1.368830095471253
 10
14.03812255357497
 20
0.9390760901125219
 10
14.20965043751503
 20
0.6650000000000063
 72
     1
 10
14.20965043751506
 20
0.6649999999999921
 11
14.61000000000005
 21
0.6649999999999921
 72
     1
 10
14.61000000000005
 20
0.6649999999999921
 11
14.61000000000005
 21
2.014998644590434
 97
        0
 75
     1
 76
     1
 52
90.0
 41
0.1
 77
     0
 78
     4
 53
135.0
 43
-55.84727197919079
 44
-63.97324789977826
 45
-1.347038418160373
 46
-1.347038418160373
 79
     0
 53
135.0
 43
-55.84727197919079
 44
-63.52423489977826
 45
-1.347038418160373
 46
-1.347038418160373
 79
     0
 53
135.0
 43
-55.84727197919079
 44
-63.07522189977825
 45
-1.347038418160373
 46
-1.347038418160373
 79
     0
 53
135.0
 43
-55.84727197919079
 44
-62.62620789977826
 45
-1.347038418160373
 46
-1.347038418160373
 79
     0
 47
0.0059173462804652
 98
        1
 10
14.1749171915082
 20
1.52048458875889
1001
GRADIENTCOLOR1ACI
1070
     5
1001
GRADIENTCOLOR2ACI
1070
     2
1001
ACAD
1010
0.0
1020
0.0
1030
0.0
  0
LINE
  5
251A
330
24D0
100
AcDbEntity
  8
0
 62
     4
100
AcDbLine
 10
14.61000000000005
 20
2.014999866485624
 30
0.0
 11
14.61000000000005
 21
0.6130305688986937
 31
0.0
1001
DIMEXPLODE
1070
     0
  0
LINE
  5
251B
330
24D0
100
AcDbEntity
  8
0
 62
     2
100
AcDbLine
 10
16.74387957814276
 20
0.3881391580987383
 30
0.0
 11
16.73259938498393
 21
0.0133088535043839
 31
0.0
1001
DIMEXPLODE
1070
     0
  0
HATCH
  5
251C
330
24D0
100
AcDbEntity
  8
AM_8
 62
     2
100
AcDbHatch
 10
0.0
 20
0.0
 30
0.0
210
0.0
220
0.0
230
1.0
  2
ANSI31
 70
     0
 71
     0
 91
        1
 92
        5
 93
        5
 72
     4
 94
        3
 73
     0
 74
     0
 95
        8
 96
        4
 40
2.890141713261222
 40
2.890141713261222
 40
2.890141713261222
 40
2.890141713261222
 40
3.07994672952195
 40
3.07994672952195
 40
3.07994672952195
 40
3.07994672952195
 10
14.23596428705571
 20
0.6236849787186998
 10
14.27150635898503
 20
0.5688183963093963
 10
14.30910097105948
 20
0.5143929748901286
 10
14.34821766288397
 20
0.4602947004019456
 72
     1
 10
14.348217662884
 20
0.4602947004019314
 11
16.7438798164473
 21
0.3881391509211909
 72
     1
 10
16.74387981644728
 20
0.3881391509211909
 11
16.85713854947146
 21
0.4947804224176338
 72
     1
 10
16.85713854947148
 20
0.4947804224176338
 11
16.85864257379166
 21
0.5447577487023523
 72
     1
 10
16.85864257379166
 20
0.5447577487023523
 11
14.23596428705573
 21
0.6236849787186998
 97
        0
 75
     1
 76
     1
 52
0.0
 41
0.2
 77
     0
 78
     1
 53
45.0
 43
-55.84727197919079
 44
-63.97324789977826
 45
-0.4490128060534576
 46
0.4490128060534577
 79
     0
 47
0.009353261500213
 98
        1
 10
15.34691388118853
 20
0.5605751235723205
1001
GRADIENTCOLOR1ACI
1070
     5
1001
GRADIENTCOLOR2ACI
1070
     2
1001
ACAD
1010
0.0
1020
0.0
1030
0.0
  0
LINE
  5
251D
330
24D0
100
AcDbEntity
  8
0
 62
     2
100
AcDbLine
 10
16.85864257379166
 20
0.5447577487023523
 30
0.0
 11
16.84254950280832
 21
0.0100000000000193
 31
0.0
1001
DIMEXPLODE
1070
     0
  0
LINE
  5
251E
330
24D0
100
AcDbEntity
  8
0
 62
     2
100
AcDbLine
 10
14.64771262899249
 20
0.0762299528653614
 30
0.0
 11
16.84254950280832
 21
0.0100000000000193
 31
0.0
1001
DIMEXPLODE
1070
     0
  0
LINE
  5
251F
330
24D0
100
AcDbEntity
  8
0
 62
     2
100
AcDbLine
 10
14.34821766288395
 20
0.4602947004019314
 30
0.0
 11
16.74387957814276
 21
0.3881391580987383
 31
0.0
1001
DIMEXPLODE
1070
     0
  0
LINE
  5
2520
330
24D0
100
AcDbEntity
  8
0
 62
     2
100
AcDbLine
 10
16.74387981645345
 20
0.3881391509269747
 30
0.0
 11
16.85713928591878
 21
0.4947811158359344
 31
0.0
1001
DIMEXPLODE
1070
     0
  0
LINE
  5
2521
330
24D0
100
AcDbEntity
  8
0
 62
     2
100
AcDbLine
 10
14.23596428705571
 20
0.6236849787186998
 30
0.0
 11
16.85864257379166
 21
0.5447577487023523
 31
0.0
1001
DIMEXPLODE
1070
     0
  0
LINE
  5
2522
330
24D0
100
AcDbEntity
  8
0
 62
     4
100
AcDbLine
 10
13.95154187466875
 20
2.014998644590434
 30
0.0
 11
14.61000000000008
 21
2.014998644590434
 31
0.0
1001
DIMEXPLODE
1070
     0
  0
HATCH
  5
2523
330
24D0
100
AcDbEntity
  8
AM_8
 62
     3
100
AcDbHatch
 10
0.0
 20
0.0
 30
0.0
210
0.0
220
0.0
230
1.0
  2
ANSI31
 70
     0
 71
     0
 91
        1
 92
        5
 93
       17
 72
     1
 10
16.81894739848469
 20
3.155000269413022
 11
17.26000019073483
 21
3.155000269413022
 72
     1
 10
17.26000019073485
 20
3.155000269413022
 11
17.26000019073485
 21
3.950000107288417
 72
     1
 10
17.26000019073485
 20
3.950000107288417
 11
18.65999980926512
 21
3.950000107288417
 72
     1
 10
18.65999980926512
 20
3.950000107288417
 11
18.65999980926512
 21
3.155000269413022
 72
     1
 10
18.65999980926512
 20
3.155000269413022
 11
19.10105260151537
 21
3.155000269413022
 72
     2
 10
17.9600000000001
 20
5.624999821186179
 40
2.720826864242618
 50
294.7952702776648
 51
303.4564589481491
 73
     1
 72
     1
 10
19.46000035887269
 20
3.35500031709671
 11
19.71000000000004
 21
3.35500031709671
 72
     1
 10
19.71000000000004
 20
3.35500031709671
 11
19.71000000000004
 21
2.624998152256011
 72
     1
 10
19.71000000000004
 20
2.624998152256011
 11
19.2893440641721
 21
2.382132475870108
 72
     2
 10
19.03909297943114
 20
2.815000116825132
 40
0.5000000000000005
 50
59.96677116954277
 51
90.0
 73
     0
 72
     1
 10
19.03909297943114
 20
2.315000116825132
 11
14.71000000000004
 21
2.315000116825132
 72
     1
 10
14.71000000000004
 20
2.315000116825132
 11
14.71000000000004
 21
2.044998645782513
 72
     1
 10
14.71000000000004
 20
2.044998645782513
 11
13.9504658995695
 21
2.044998645782513
 72
     4
 94
        3
 73
     0
 74
     0
 95
       10
 96
        6
 40
0.0
 40
0.0
 40
0.0
 40
0.0
 40
0.1391453879026148
 40
1.048341014499072
 40
1.392175338447649
 40
1.392175338447649
 40
1.392175338447649
 40
1.392175338447649
 10
13.95046589956949
 20
2.044998645782513
 10
13.94811666698855
 20
2.091076548638383
 10
13.90542613551248
 20
2.434436590874398
 10
13.47624217698593
 20
2.830428019322908
 10
13.62043355227147
 20
3.24205022844599
 10
13.66000000000003
 20
3.35500031709671
 72
     1
 10
13.66000000000003
 20
3.35500031709671
 11
16.46000000000004
 21
3.35500031709671
 72
     1
 10
16.46000000000004
 20
3.35500031709671
 11
16.46000000000004
 21
3.355000079956127
 72
     2
 10
17.96000000000004
 20
5.624999821186136
 40
2.720826864242607
 50
236.5435501099515
 51
245.2047297223335
 73
     1
 97
        0
 75
     1
 76
     1
 52
0.0
 41
0.2
 77
     0
 78
     1
 53
45.0
 43
-55.84727197919079
 44
-63.97324789977826
 45
-0.4490128060534576
 46
0.4490128060534577
 79
     0
 47
0.0095361032210384
 98
        1
 10
15.27071433300029
 20
2.662721540032734
1001
GRADIENTCOLOR1ACI
1070
     5
1001
GRADIENTCOLOR2ACI
1070
     2
1001
ACAD
1010
0.0
1020
0.0
1030
0.0
  0
LINE
  5
2524
330
24D0
100
AcDbEntity
  8
0
 62
     3
100
AcDbLine
 10
18.65999980926512
 20
3.155000269413022
 30
0.0
 11
19.46000000000004
 21
3.155000269413022
 31
0.0
1001
DIMEXPLODE
1070
     0
  0
LINE
  5
2525
330
24D0
100
AcDbEntity
  8
0
 62
     3
100
AcDbLine
 10
19.71000000000004
 20
-3.355000197887363
 30
0.0
 11
19.71000000000004
 21
0.0000000000000284
 31
0.0
1001
DIMEXPLODE
1070
     0
  0
LINE
  5
2526
330
24D0
100
AcDbEntity
  8
0
 62
     3
100
AcDbLine
 10
16.46000000000004
 20
3.35500031709671
 30
0.0
 11
8.710000000000036
 21
3.35500031709671
 31
0.0
1001
DIMEXPLODE
1070
     0
  0
LINE
  5
2527
330
24D0
100
AcDbEntity
  8
0
 62
     3
100
AcDbLine
 10
17.26000019073485
 20
-3.949999988078985
 30
0.0
 11
17.26000019073485
 21
-3.155000388622283
 31
0.0
1001
DIMEXPLODE
1070
     0
  0
LINE
  5
2528
330
24D0
100
AcDbEntity
  8
0
 62
     3
100
AcDbLine
 10
14.71000000000004
 20
2.315000116825132
 30
0.0
 11
14.71000000000004
 21
0.609419284774944
 31
0.0
1001
DIMEXPLODE
1070
     0
  0
LINE
  5
2529
330
24D0
100
AcDbEntity
  8
0
 62
     3
100
AcDbLine
 10
17.26000019073485
 20
-3.155000388622283
 30
0.0
 11
16.81894775390623
 21
-3.155000388622283
 31
0.0
1001
DIMEXPLODE
1070
     0
  0
LINE
  5
252A
330
24D0
100
AcDbEntity
  8
0
 62
     3
100
AcDbLine
 10
19.46000035887267
 20
3.35500031709671
 30
0.0
 11
19.46000000000004
 21
3.155000269413022
 31
0.0
1001
DIMEXPLODE
1070
     0
  0
LINE
  5
252B
330
24D0
100
AcDbEntity
  8
0
 62
     3
100
AcDbLine
 10
8.710000000000036
 20
3.999999999999985
 30
0.0
 11
8.710000000000036
 21
0.0
 31
0.0
1001
DIMEXPLODE
1070
     0
  0
LINE
  5
252C
330
24D0
100
AcDbEntity
  8
0
 62
     3
100
AcDbLine
 10
16.46000000000004
 20
-3.355000197887363
 30
0.0
 11
8.710000000000036
 21
-3.355000197887363
 31
0.0
1001
DIMEXPLODE
1070
     0
  0
LINE
  5
252D
330
24D0
100
AcDbEntity
  8
0
 62
     3
100
AcDbLine
 10
17.26000019073485
 20
-3.949999988078985
 30
0.0
 11
18.65999980926512
 21
-3.949999988078985
 31
0.0
1001
DIMEXPLODE
1070
     0
  0
LINE
  5
252E
330
24D0
100
AcDbEntity
  8
0
 62
     3
100
AcDbLine
 10
19.46000035887267
 20
3.35500031709671
 30
0.0
 11
19.71000000000004
 21
3.35500031709671
 31
0.0
1001
DIMEXPLODE
1070
     0
  0
LINE
  5
252F
330
24D0
100
AcDbEntity
  8
0
 62
     3
100
AcDbLine
 10
17.26000019073485
 20
3.155000269413022
 30
0.0
 11
16.46000000000004
 21
3.155000269413022
 31
0.0
1001
DIMEXPLODE
1070
     0
  0
LINE
  5
2530
330
24D0
100
AcDbEntity
  8
0
 62
     3
100
AcDbLine
 10
14.71000000000004
 20
2.315000116825132
 30
0.0
 11
19.03909297943114
 21
2.315000116825103
 31
0.0
1001
DIMEXPLODE
1070
     0
  0
LINE
  5
2531
330
24D0
100
AcDbEntity
  8
0
 62
     3
100
AcDbLine
 10
17.26000019073485
 20
-3.155000388622283
 30
0.0
 11
18.65999980926512
 21
-3.155000388622283
 31
0.0
1001
DIMEXPLODE
1070
     0
  0
LINE
  5
2532
330
24D0
100
AcDbEntity
  8
0
 62
     3
100
AcDbLine
 10
19.71000000000004
 20
3.35500031709671
 30
0.0
 11
19.71000000000004
 21
2.624998152256011
 31
0.0
1001
DIMEXPLODE
1070
     0
  0
LINE
  5
2533
330
24D0
100
AcDbEntity
  8
0
 62
     3
100
AcDbLine
 10
19.71000000000004
 20
2.624998152256011
 30
0.0
 11
19.71000000000004
 21
0.0000000000000284
 31
0.0
1001
DIMEXPLODE
1070
     0
  0
LINE
  5
2534
330
24D0
100
AcDbEntity
  8
0
 62
     3
100
AcDbLine
 10
16.46000000000004
 20
3.35500031709671
 30
0.0
 11
16.46000000000004
 21
3.155000269413022
 31
0.0
1001
DIMEXPLODE
1070
     0
  0
LINE
  5
2535
330
24D0
100
AcDbEntity
  8
0
 62
     3
100
AcDbLine
 10
19.46000000000004
 20
-3.355000197887363
 30
0.0
 11
19.71000000000004
 21
-3.355000197887363
 31
0.0
1001
DIMEXPLODE
1070
     0
  0
LINE
  5
2536
330
24D0
100
AcDbEntity
  8
0
 62
     3
100
AcDbLine
 10
18.65999980926512
 20
-3.155000388622283
 30
0.0
 11
19.10105224609374
 21
-3.155000388622283
 31
0.0
1001
DIMEXPLODE
1070
     0
  0
LINE
  5
2537
330
24D0
100
AcDbEntity
  8
0
 62
     3
100
AcDbLine
 10
18.65999980926512
 20
-3.949999988078985
 30
0.0
 11
18.65999980926512
 21
-3.155000388622283
 31
0.0
1001
DIMEXPLODE
1070
     0
  0
LINE
  5
2538
330
24D0
100
AcDbEntity
  8
0
 62
     3
100
AcDbLine
 10
18.96000000000004
 20
-3.155000388622283
 30
0.0
 11
18.96000000000004
 21
0.0000000000000284
 31
0.0
1001
DIMEXPLODE
1070
     0
  0
LINE
  5
2539
330
24D0
100
AcDbEntity
  8
0
 62
     3
100
AcDbLine
 10
17.26000019073485
 20
3.950000107288417
 30
0.0
 11
17.26000019073485
 21
3.155000269413022
 31
0.0
1001
DIMEXPLODE
1070
     0
  0
LINE
  5
253A
330
24D0
100
AcDbEntity
  8
0
 62
     3
100
AcDbLine
 10
18.65999980926512
 20
3.950000107288417
 30
0.0
 11
18.65999980926512
 21
3.155000269413022
 31
0.0
1001
DIMEXPLODE
1070
     0
  0
LINE
  5
253B
330
24D0
100
AcDbEntity
  8
0
 62
     3
100
AcDbLine
 10
16.96000000000004
 20
-3.155000388622283
 30
0.0
 11
16.96000000000004
 21
0.0000000000000284
 31
0.0
1001
DIMEXPLODE
1070
     0
  0
LINE
  5
253C
330
24D0
100
AcDbEntity
  8
0
 62
     3
100
AcDbLine
 10
19.28909297943114
 20
2.38198751211172
 30
0.0
 11
19.71000000000004
 21
2.624998152256011
 31
0.0
1001
DIMEXPLODE
1070
     0
  0
LINE
  5
253D
330
24D0
100
AcDbEntity
  8
0
 62
     3
100
AcDbLine
 10
17.26000019073485
 20
3.950000107288417
 30
0.0
 11
18.65999980926512
 21
3.950000107288417
 31
0.0
1001
DIMEXPLODE
1070
     0
  0
ARC
  5
253E
330
24D0
100
AcDbEntity
  8
0
 62
     3
100
AcDbCircle
 10
17.96000000000004
 20
-5.625000178813877
 30
0.0
 40
2.720826864242599
100
AcDbArc
 50
56.54355028922088
 51
65.20473559079542
1001
DIMEXPLODE
1070
     0
  0
ARC
  5
253F
330
24D0
100
AcDbEntity
  8
0
 62
     3
100
AcDbCircle
 10
17.96000000000004
 20
5.624999821186122
 30
0.0
 40
2.720826864242599
100
AcDbArc
 50
294.7952644092045
 51
303.456449710779
1001
DIMEXPLODE
1070
     0
  0
ARC
  5
2540
330
24D0
100
AcDbEntity
  8
0
 62
     3
100
AcDbCircle
 10
17.96000000000004
 20
5.624999821186122
 30
0.0
 40
2.720826864242599
100
AcDbArc
 50
236.543552110452
 51
245.2047374120271
1001
DIMEXPLODE
1070
     0
  0
ARC
  5
2541
330
24D0
100
AcDbEntity
  8
0
 62
     3
100
AcDbCircle
 10
17.96000000000004
 20
-5.625000178813877
 30
0.0
 40
2.720826864242599
100
AcDbArc
 50
114.7952625879728
 51
123.4564478895444
1001
DIMEXPLODE
1070
     0
  0
ARC
  5
2542
330
24D0
100
AcDbEntity
  8
0
 62
     3
100
AcDbCircle
 10
19.03909297943114
 20
2.815000116825132
 30
0.0
 40
0.5
100
AcDbArc
 50
269.9999974955215
 51
299.9999983303486
1001
DIMEXPLODE
1070
     0
  0
LINE
  5
2543
330
24D0
100
AcDbEntity
  8
0
 62
     3
100
AcDbLine
 10
8.710000000000036
 20
0.0
 30
0.0
 11
8.710000000000064
 21
-4.000000000000014
 31
0.0
1001
DIMEXPLODE
1070
     0
  0
LINE
  5
2544
330
24D0
100
AcDbEntity
  8
0
 62
     3
100
AcDbLine
 10
14.71000000000004
 20
2.044998645782513
 30
0.0
 11
13.9504658995696
 21
2.044998645782513
 31
0.0
1001
DIMEXPLODE
1070
     0
  0
LINE
  5
2545
330
24D0
100
AcDbEntity
  8
0
 62
     3
100
AcDbLine
 10
7.590000000000031
 20
3.999999999999985
 30
0.0
 11
8.710000000000036
 21
3.999999999999985
 31
0.0
  0
LINE
  5
2546
330
24D0
100
AcDbEntity
  8
0
 62
     3
100
AcDbLine
 10
7.590000000000031
 20
-4.000000000000014
 30
0.0
 11
8.710000000000064
 21
-4.000000000000014
 31
0.0
  0
LINE
  5
2547
330
24D0
100
AcDbEntity
  8
0
 62
     3
100
AcDbLine
 10
36.6283035650171
 20
-3.949999988078985
 30
0.0
 11
36.6283035650171
 21
-3.28116250660463
 31
0.0
1001
DIMEXPLODE
1070
     0
  0
LINE
  5
2548
330
24D0
100
AcDbEntity
  8
0
 62
     3
100
AcDbLine
 10
36.6283035650171
 20
-3.949999988078985
 30
0.0
 11
38.02830318354737
 21
-3.949999988078985
 31
0.0
1001
DIMEXPLODE
1070
     0
  0
LINE
  5
2549
330
24D0
100
AcDbEntity
  8
0
 62
     3
100
AcDbLine
 10
38.02830318354737
 20
-3.949999988078985
 30
0.0
 11
38.02830318354737
 21
-3.28116250660463
 31
0.0
1001
DIMEXPLODE
1070
     0
  0
LINE
  5
254A
330
24D0
100
AcDbEntity
  8
0
 62
     3
100
AcDbLine
 10
36.6283035650171
 20
3.950000107288417
 30
0.0
 11
36.62830356501709
 21
3.281162506604601
 31
0.0
1001
DIMEXPLODE
1070
     0
  0
LINE
  5
254B
330
24D0
100
AcDbEntity
  8
0
 62
     3
100
AcDbLine
 10
38.02830318354737
 20
3.950000107288417
 30
0.0
 11
38.02830318354737
 21
3.281162506604601
 31
0.0
1001
DIMEXPLODE
1070
     0
  0
LINE
  5
254C
330
24D0
100
AcDbEntity
  8
0
 62
     3
100
AcDbLine
 10
36.6283035650171
 20
3.950000107288417
 30
0.0
 11
38.02830318354737
 21
3.950000107288417
 31
0.0
1001
DIMEXPLODE
1070
     0
  0
CIRCLE
  5
254D
330
24D0
100
AcDbEntity
  8
0
100
AcDbCircle
 10
37.32830337428224
 20
-0.0000000000000142
 30
0.0
 40
3.355000317096724
  0
LINE
  5
254E
330
24D0
100
AcDbEntity
  8
AM_7
100
AcDbLine
 10
32.22830337428224
 20
-0.0000000000000142
 30
0.0
 11
42.42830337428222
 21
-0.0000000000000142
 31
0.0
1001
GENIUS_GENODEF_13
1002
{
1000
HIER
1070
     0
1002
}
1002
{
1000
MANEDIT
1070
     0
1002
}
1002
{
1000
NOSEL
1070
     0
1002
}
1002
{
1000
BEHIND
1070
     0
1002
}
1002
{
1000
OTHER
1070
     0
1002
}
1002
{
1000
REACTOR
1002
}
1001
GENIUS_GENOBJ-N-CEN_13
1002
{
1000
OWNER
1000
GEN
1002
}
1001
GENIUS_GENCEN_19
1002
{
1040
0.85
1002
}
  0
LINE
  5
254F
330
24D0
100
AcDbEntity
  8
AM_7
100
AcDbLine
 10
37.32830337428224
 20
6.073999952319724
 30
0.0
 11
37.32830337428224
 21
-9.573999475475389
 31
0.0
1001
GENIUS_GENODEF_13
1002
{
1000
HIER
1070
     0
1002
}
1002
{
1000
MANEDIT
1070
     0
1002
}
1002
{
1000
NOSEL
1070
     0
1002
}
1002
{
1000
BEHIND
1070
     0
1002
}
1002
{
1000
OTHER
1070
     0
1002
}
1002
{
1000
REACTOR
1002
}
1001
GENIUS_GENOBJ-N-CEN_13
1002
{
1000
OWNER
1000
GEN
1002
}
1001
GENIUS_GENCEN_19
1002
{
1040
1.303999952316259
1002
}
  0
CIRCLE
  5
2550
330
24D0
100
AcDbEntity
  8
0
100
AcDbCircle
 10
37.32830337428224
 20
-0.0000000000000142
 30
0.0
 40
2.624998152256026
  0
CIRCLE
  5
2551
330
24D0
100
AcDbEntity
  8
0
100
AcDbCircle
 10
37.32830337428224
 20
-0.0000000000000142
 30
0.0
 40
2.332037198966716
  0
ARC
  5
2552
330
24D0
100
AcDbEntity
  8
0
100
AcDbCircle
 10
37.32830337428221
 20
-0.1000000000000156
 30
0.0
 40
0.634999774396448
100
AcDbArc
 50
9.060678077398339
 51
170.9393219226017
  0
ARC
  5
2553
330
24D0
100
AcDbEntity
  8
0
100
AcDbCircle
 10
37.32830337428221
 20
-0.1000000000000156
 30
0.0
 40
0.5749994501467537
100
AcDbArc
 50
10.01541984441665
 51
169.9845801555833
  0
ARC
  5
2554
330
24D0
100
AcDbEntity
  8
0
100
AcDbCircle
 10
37.32830337428221
 20
-0.1000000000000156
 30
0.0
 40
0.4749994501467541
100
AcDbArc
 50
12.15321175224997
 51
167.84678824775
  0
LINE
  5
2555
330
24D0
100
AcDbEntity
  8
0
100
AcDbLine
 10
36.70122705238547
 20
-0.0000000000000142
 30
0.0
 11
36.86394954621603
 21
-0.0000000000000142
 31
0.0
  0
LINE
  5
2556
330
24D0
100
AcDbEntity
  8
0
100
AcDbLine
 10
37.79265720234839
 20
-0.0000000000000142
 30
0.0
 11
37.95537969617895
 21
-0.0000000000000142
 31
0.0
  0
ARC
  5
2557
330
24D0
100
AcDbEntity
  8
0
100
AcDbCircle
 10
37.32830337428219
 20
0.1000000000000654
 30
0.0
 40
0.634999774396448
100
AcDbArc
 50
189.060678077409
 51
350.9393219226124
  0
ARC
  5
2558
330
24D0
100
AcDbEntity
  8
0
100
AcDbCircle
 10
37.32830337428219
 20
0.1000000000000654
 30
0.0
 40
0.5749994501467537
100
AcDbArc
 50
190.0154198444265
 51
349.9845801555933
  0
ARC
  5
2559
330
24D0
100
AcDbEntity
  8
0
100
AcDbCircle
 10
37.32830337428219
 20
0.1000000000000654
 30
0.0
 40
0.4749994501467541
100
AcDbArc
 50
192.1532117522607
 51
347.8467882477609
  0
LINE
  5
255A
330
24D0
100
AcDbEntity
  8
0
100
AcDbLine
 10
36.70122705238547
 20
-0.0000000000000426
 30
0.0
 11
36.86394954621603
 21
-0.0000000000000142
 31
0.0
  0
LINE
  5
255B
330
24D0
100
AcDbEntity
  8
0
100
AcDbLine
 10
37.79265720234839
 20
0.0000000000001563
 30
0.0
 11
37.95537969617895
 21
0.0000000000001847
 31
0.0
  0
CIRCLE
  5
255C
330
24D0
100
AcDbEntity
  8
0
100
AcDbCircle
 10
37.32830337428224
 20
-0.0000000000000142
 30
0.0
 40
0.6650000000000063
  0
LINE
  5
255D
330
24D0
100
AcDbEntity
  8
0
100
AcDbLine
 10
14.20965043751506
 20
0.6649999999999921
 30
0.0
 11
14.61000000000005
 21
0.6649999999999921
 31
0.0
  0
LINE
  5
255E
330
24D0
100
AcDbEntity
  8
0
 62
    51
100
AcDbLine
 10
36.69330337428222
 20
-4.129999999996528
 30
0.0
 11
36.69330337428222
 21
-6.969999523159181
 31
0.0
  0
LINE
  5
255F
330
24D0
100
AcDbEntity
  8
0
 62
    51
100
AcDbLine
 10
37.96330337428218
 20
-6.969999523159124
 30
0.0
 11
37.9633033742822
 21
-4.129999999996528
 31
0.0
  0
LINE
  5
2560
330
24D0
100
AcDbEntity
  8
0
 62
    51
 48
0.5
100
AcDbLine
 10
37.96330337428223
 20
-6.969999523159117
 30
0.0
 11
36.6933033742823
 21
-6.969999523159174
 31
0.0
1001
DIMEXPLODE
1070
     0
  0
LINE
  5
2561
330
24D0
100
AcDbEntity
  8
0
 62
    51
100
AcDbLine
 10
36.99330337428226
 20
-7.269999523159128
 30
0.0
 11
37.66330337428222
 21
-7.269999523159128
 31
0.0
  0
LINE
  5
2562
330
24D0
100
AcDbEntity
  8
0
 62
    51
 48
0.5
100
AcDbLine
 10
37.96330337428223
 20
-6.969999523159117
 30
0.0
 11
37.66330337428222
 21
-7.269999523159128
 31
0.0
1001
DIMEXPLODE
1070
     0
1001
GENIUS_GENFIL_13
1070
     1
1040
0.2
1040
0.8333333333333332
1040
0.3
1040
45.0
1002
{
1002
}
1001
GENIUS_GENODEF_13
1002
{
1000
HIER
1070
     0
1002
}
1002
{
1000
MANEDIT
1070
     0
1002
}
1002
{
1000
NOSEL
1070
     0
1002
}
1002
{
1000
BEHIND
1070
     0
1002
}
1002
{
1000
OTHER
1070
     0
1002
}
1002
{
1000
REACTOR
1002
}
1001
GENIUS_GENOBJ-N-CHA_13
1002
{
1000
OWNER
1000
GEN
1002
}
  0
LINE
  5
2563
330
24D0
100
AcDbEntity
  8
0
 62
    51
 48
0.5
100
AcDbLine
 10
36.69330337428224
 20
-6.969999523159117
 30
0.0
 11
36.99330337428226
 21
-7.269999523159128
 31
0.0
1001
DIMEXPLODE
1070
     0
1001
GENIUS_GENFIL_13
1070
     1
1040
0.2
1040
0.8333333333333332
1040
0.3
1040
45.0
1002
{
1002
}
1001
GENIUS_GENODEF_13
1002
{
1000
HIER
1070
     0
1002
}
1002
{
1000
MANEDIT
1070
     0
1002
}
1002
{
1000
NOSEL
1070
     0
1002
}
1002
{
1000
BEHIND
1070
     0
1002
}
1002
{
1000
OTHER
1070
     0
1002
}
1002
{
1000
REACTOR
1002
}
1001
GENIUS_GENOBJ-N-CHA_13
1002
{
1000
OWNER
1000
GEN
1002
}
  0
LINE
  5
2564
330
24D0
100
AcDbEntity
  8
0
 62
     3
100
AcDbLine
 10
7.590000000000038
 20
-28.62959449643618
 30
0.0
 11
7.590000000000031
 21
-25.27459429854884
 31
0.0
  0
LINE
  5
2565
330
24D0
100
AcDbEntity
  8
0
 62
     3
100
AcDbLine
 10
19.71000000000004
 20
-28.6295944964362
 30
0.0
 11
19.71000000000004
 21
-25.27459429854881
 31
0.0
1001
DIMEXPLODE
1070
     0
  0
LINE
  5
2566
330
24D0
100
AcDbEntity
  8
0
 62
     3
100
AcDbLine
 10
19.10105208541845
 20
-28.42959468717112
 30
0.0
 11
16.81894775390623
 21
-28.42959468717112
 31
0.0
1001
DIMEXPLODE
1070
     0
  0
LINE
  5
2567
330
24D0
100
AcDbEntity
  8
0
 62
     3
100
AcDbLine
 10
16.46000036274079
 20
-28.62959449643621
 30
0.0
 11
7.590000000000031
 21
-28.62959449643619
 31
0.0
1001
DIMEXPLODE
1070
     0
  0
LINE
  5
2568
330
24D0
100
AcDbEntity
  8
0
 62
     3
100
AcDbLine
 10
19.46000000000004
 20
-28.6295944964362
 30
0.0
 11
19.71000000000004
 21
-28.6295944964362
 31
0.0
1001
DIMEXPLODE
1070
     0
  0
LINE
  5
2569
330
24D0
100
AcDbEntity
  8
0
 62
     3
100
AcDbLine
 10
18.96000000000004
 20
-28.42959468717112
 30
0.0
 11
18.96000000000004
 21
-26.39262828729837
 31
0.0
1001
DIMEXPLODE
1070
     0
  0
LINE
  5
256A
330
24D0
100
AcDbEntity
  8
0
 62
     3
100
AcDbLine
 10
16.96000000000004
 20
-28.42959468717112
 30
0.0
 11
16.96000000000004
 21
-26.39262828729837
 31
0.0
1001
DIMEXPLODE
1070
     0
  0
ARC
  5
256B
330
24D0
100
AcDbEntity
  8
0
 62
     3
100
AcDbCircle
 10
17.96000000000004
 20
-30.89959447736271
 30
0.0
 40
2.720826864242599
100
AcDbArc
 50
56.54355028922122
 51
65.20473559079542
1001
DIMEXPLODE
1070
     0
  0
ARC
  5
256C
330
24D0
100
AcDbEntity
  8
0
 62
     3
100
AcDbCircle
 10
17.96000000000004
 20
-30.89959447736271
 30
0.0
 40
2.720826864242599
100
AcDbArc
 50
114.7952625879728
 51
123.4564478895444
1001
DIMEXPLODE
1070
     0
  0
LINE
  5
256D
330
24D0
100
AcDbEntity
  8
0
 62
     3
100
AcDbLine
 10
8.710000000000036
 20
-25.27459429854884
 30
0.0
 11
8.710000000000064
 21
-28.62959449643618
 31
0.0
1001
DIMEXPLODE
1070
     0
  0
LINE
  5
256E
330
24D0
100
AcDbEntity
  8
0
 62
     3
100
AcDbLine
 10
7.589999999991931
 20
-22.59959429854869
 30
0.0
 11
7.389999999991857
 21
-22.59959429854869
 31
0.0
  0
LINE
  5
256F
330
24D0
100
AcDbEntity
  8
0
 62
     3
100
AcDbLine
 10
7.590000000000038
 20
-21.91959410065569
 30
0.0
 11
7.590000000000031
 21
-25.27459429854308
 31
0.0
  0
LINE
  5
2570
330
24D0
100
AcDbEntity
  8
0
 62
     3
100
AcDbLine
 10
19.71000000000004
 20
-21.91959410065571
 30
0.0
 11
19.71000000000004
 21
-25.27459429854311
 31
0.0
1001
DIMEXPLODE
1070
     0
  0
LINE
  5
2571
330
24D0
100
AcDbEntity
  8
0
 62
     3
100
AcDbLine
 10
16.4600003627408
 20
-21.91959410065571
 30
0.0
 11
7.590000000000031
 21
-21.91959410065571
 31
0.0
1001
DIMEXPLODE
1070
     0
  0
LINE
  5
2572
330
24D0
100
AcDbEntity
  8
0
 62
     3
100
AcDbLine
 10
19.46000000000004
 20
-21.91959410065571
 30
0.0
 11
19.71000000000004
 21
-21.91959410065571
 31
0.0
1001
DIMEXPLODE
1070
     0
  0
LINE
  5
2573
330
24D0
100
AcDbEntity
  8
0
 62
     3
100
AcDbLine
 10
16.81894791458163
 20
-22.11959390992079
 30
0.0
 11
19.10105224609374
 21
-22.11959390992079
 31
0.0
1001
DIMEXPLODE
1070
     0
  0
LINE
  5
2574
330
24D0
100
AcDbEntity
  8
0
 62
     3
100
AcDbLine
 10
18.96000000000004
 20
-22.11959390992079
 30
0.0
 11
18.96000000000004
 21
-24.15656030979859
 31
0.0
1001
DIMEXPLODE
1070
     0
  0
LINE
  5
2575
330
24D0
100
AcDbEntity
  8
0
 62
     3
100
AcDbLine
 10
16.96000000000004
 20
-22.11959390992079
 30
0.0
 11
16.96000000000004
 21
-24.15656030979859
 31
0.0
1001
DIMEXPLODE
1070
     0
  0
ARC
  5
2576
330
24D0
100
AcDbEntity
  8
0
 62
     3
100
AcDbCircle
 10
17.96000000000004
 20
-19.6495941197292
 30
0.0
 40
2.720826864242599
100
AcDbArc
 50
294.7952644092045
 51
303.456449710779
1001
DIMEXPLODE
1070
     0
  0
ARC
  5
2577
330
24D0
100
AcDbEntity
  8
0
 62
     3
100
AcDbCircle
 10
17.96000000000004
 20
-19.6495941197292
 30
0.0
 40
2.720826864242599
100
AcDbArc
 50
236.5435521104553
 51
245.2047374120271
1001
DIMEXPLODE
1070
     0
  0
LINE
  5
2578
330
24D0
100
AcDbEntity
  8
0
 62
     3
100
AcDbLine
 10
8.710000000000036
 20
-25.27459429854308
 30
0.0
 11
8.710000000000064
 21
-21.9195941006557
 31
0.0
1001
DIMEXPLODE
1070
     0
  0
SPLINE
  5
2579
102
{ACAD_REACTORS
330
250A
102
}
330
24D0
100
AcDbEntity
  8
0
100
AcDbSpline
210
0.0
220
0.0
230
1.0
 70
  1064
 71
     3
 72
    11
 73
     7
 74
     5
 42
0.000000001
 43
0.0000000001
 44
0.0000000001
 40
0.0
 40
0.0
 40
0.0
 40
0.0
 40
1.142747276049985
 40
1.922214382931727
 40
2.424954993149051
 40
3.68047146452117
 40
3.68047146452117
 40
3.68047146452117
 40
3.68047146452117
 10
-3.610000000000006
 20
-3.699324713013893
 30
0.0
 10
-3.232658297389804
 20
-3.652574359948729
 30
0.0
 10
-2.597932086932786
 20
-3.57393562419989
 30
0.0
 10
-1.774861001731679
 20
-3.615146666360473
 30
0.0
 10
-0.994915565497223
 20
-3.959714243388248
 30
0.0
 10
-0.4144746969720999
 20
-4.059060173729392
 30
0.0
 10
0.0
 20
-4.130000000000023
 30
0.0
 11
-3.610000000000006
 21
-3.699324713013893
 31
0.0
 11
-2.471717108299401
 21
-3.598411902224725
 31
0.0
 11
-1.696134653176066
 21
-3.67613465317612
 31
0.0
 11
-1.222999132500319
 21
-3.84610788705892
 31
0.0
 11
0.0
 21
-4.130000000000023
 31
0.0
  0
SPLINE
  5
257A
330
24D0
100
AcDbEntity
  8
0
100
AcDbSpline
210
0.0
220
0.0
230
1.0
 70
  1064
 71
     3
 72
    11
 73
     7
 74
     5
 42
0.000000001
 43
0.0000000001
 44
0.0000000001
 40
0.0
 40
0.0
 40
0.0
 40
0.0
 40
0.3438343239485768
 40
1.253029950545034
 40
1.898387811583983
 40
3.624564903340518
 40
3.624564903340518
 40
3.624564903340518
 40
3.624564903340518
 10
13.66000000000003
 20
3.35500031709671
 30
0.0
 10
13.6204335522715
 20
3.24205022844599
 30
0.0
 10
13.47624217698593
 20
2.830428019322908
 30
0.0
 10
14.06148282397415
 20
2.290449124066356
 30
0.0
 10
13.77121953860118
 20
1.147665265840217
 30
0.0
 10
14.31453508957281
 20
0.4834584444585204
 30
0.0
 10
14.71000000000004
 20
-0.0000000000000142
 30
0.0
 11
13.66000000000003
 21
3.35500031709671
 31
0.0
 11
13.58124395266072
 21
3.020307133221294
 31
0.0
 11
13.93184262387212
 21
2.181428560859998
 31
0.0
 11
13.9226172648493
 21
1.53613664121768
 31
0.0
 11
14.71000000000004
 21
-0.0000000000000142
 31
0.0
  0
ARC
  5
257B
330
24D0
100
AcDbEntity
  8
0
100
AcDbCircle
 10
17.96000000000004
 20
-25.27459429854848
 30
0.0
 40
1.5
100
AcDbArc
 50
179.9999999999784
 51
228.1896851042213
  0
ARC
  5
257C
330
24D0
100
AcDbEntity
  8
0
100
AcDbCircle
 10
17.96000000000004
 20
-25.27459429854848
 30
0.0
 40
1.5
100
AcDbArc
 50
311.8103148957787
 51
359.9999999999784
  0
ARC
  5
257D
330
24D0
100
AcDbEntity
  8
0
100
AcDbCircle
 10
17.96000000000004
 20
-25.27459429854848
 30
0.0
 40
1.5
100
AcDbArc
 50
359.9999999999784
 51
48.18968510422156
  0
ARC
  5
257E
330
24D0
100
AcDbEntity
  8
0
100
AcDbCircle
 10
17.96000000000004
 20
-25.27459429854848
 30
0.0
 40
1.5
100
AcDbArc
 50
131.8103148957784
 51
179.9999999999784
  0
CIRCLE
  5
257F
330
24D0
100
AcDbEntity
  8
0
100
AcDbCircle
 10
17.96000000000004
 20
-25.27459429854848
 30
0.0
 40
0.6999998092650799
  0
ARC
  5
2580
330
24D0
100
AcDbEntity
  8
0
100
AcDbCircle
 10
37.32830337428224
 20
-0.0000000000000142
 30
0.0
 40
4.0
100
AcDbArc
 50
33.12294020774379
 51
146.8770597922562
  0
ARC
  5
2581
330
24D0
100
AcDbEntity
  8
0
100
AcDbCircle
 10
37.32830337428224
 20
-0.0000000000000142
 30
0.0
 40
4.0
100
AcDbArc
 50
213.1229402077441
 51
326.8770597922558
  0
LINE
  5
2582
330
24D0
100
AcDbEntity
  8
0
100
AcDbLine
 10
40.67830337428222
 20
2.185749299439422
 30
0.0
 11
40.67830337428222
 21
-2.185749299439464
 31
0.0
  0
LINE
  5
2583
330
24D0
100
AcDbEntity
  8
0
100
AcDbLine
 10
33.97830337428224
 20
2.185749299439422
 30
0.0
 11
33.97830337428224
 21
-2.185749299439464
 31
0.0
  0
LINE
  5
2584
330
24D0
100
AcDbEntity
  8
0
370
    15
100
AcDbLine
 10
7.590000000000031
 20
2.185749299439422
 30
0.0
 11
8.710000000000036
 21
-2.185749299439464
 31
0.0
  0
LINE
  5
2585
330
24D0
100
AcDbEntity
  8
0
370
    15
100
AcDbLine
 10
8.710000000000036
 20
2.185749299439422
 30
0.0
 11
7.590000000000031
 21
-2.185749299439464
 31
0.0
  0
LINE
  5
2586
330
24D0
100
AcDbEntity
  8
0
100
AcDbLine
 10
7.590000000000031
 20
2.18574929943945
 30
0.0
 11
8.710000000000036
 21
2.185749299439422
 31
0.0
  0
LINE
  5
2587
330
24D0
100
AcDbEntity
  8
0
100
AcDbLine
 10
7.590000000000031
 20
-2.185749299439464
 30
0.0
 11
8.710000000000036
 21
-2.185749299439471
 31
0.0
  0
CIRCLE
  5
2588
330
24D0
100
AcDbEntity
  8
0
100
AcDbCircle
 10
-0.0000000000040643
 20
-25.27459429854207
 30
0.0
 40
2.149999999995941
  0
LINE
  5
2589
330
24D0
100
AcDbEntity
  8
0
100
AcDbLine
 10
-3.050000000000004
 20
-22.22459429854211
 30
0.0
 11
-2.030000000000029
 21
-22.22459429854211
 31
0.0
  0
LINE
  5
258A
330
24D0
100
AcDbEntity
  8
0
100
AcDbLine
 10
2.029999999999972
 20
-22.22459429854211
 30
0.0
 11
3.049999999999954
 21
-22.22459429854211
 31
0.0
  0
LINE
  5
258B
330
24D0
100
AcDbEntity
  8
0
 62
     6
100
AcDbLine
 10
-3.610000000000013
 20
-28.62459429854165
 30
0.0
 11
7.389999999997499
 21
-28.62459429854983
 31
0.0
  0
LINE
  5
258C
330
24D0
100
AcDbEntity
  8
0
100
AcDbLine
 10
-3.050000000000004
 20
-22.22459429854211
 30
0.0
 11
-3.050000000000004
 21
-23.24459429854211
 31
0.0
  0
LINE
  5
258D
330
24D0
100
AcDbEntity
  8
0
100
AcDbLine
 10
-3.050000000000004
 20
-28.32459429854207
 30
0.0
 11
-3.050000000000004
 21
-27.30459429854211
 31
0.0
  0
LINE
  5
258E
102
{ACAD_REACTORS
330
250A
102
}
330
24D0
100
AcDbEntity
  8
0
100
AcDbLine
 10
-3.610000000000006
 20
4.769999999999967
 30
0.0
 11
-3.610000000000006
 21
-4.769999999999996
 31
0.0
  0
LINE
  5
258F
330
24D0
100
AcDbEntity
  8
0
100
AcDbLine
 10
-3.050000000000011
 20
-4.769999999999996
 30
0.0
 11
-3.610000000000006
 21
-4.769999999999996
 31
0.0
  0
LINE
  5
2590
330
24D0
100
AcDbEntity
  8
0
100
AcDbLine
 10
40.67830337428222
 20
-4.129999999996528
 30
0.0
 11
40.67830337428222
 21
-2.185749299439464
 31
0.0
  0
LINE
  5
2591
330
24D0
100
AcDbEntity
  8
0
 62
     6
100
AcDbLine
 10
-22.06977598615756
 20
-4.770000000000678
 30
0.0
 11
-22.06977598615756
 21
-7.270000000000578
 31
0.0
  0
LINE
  5
2592
330
24D0
100
AcDbEntity
  8
0
 62
     6
100
AcDbLine
 10
-22.06977598615756
 20
-7.270000000000578
 30
0.0
 11
-23.08977598615757
 21
-7.270000000000578
 31
0.0
  0
LINE
  5
2593
330
24D0
100
AcDbEntity
  8
0
 62
     6
100
AcDbLine
 10
-23.08977598615757
 20
-7.270000000000578
 30
0.0
 11
-23.08977598615757
 21
-4.129999999996513
 31
0.0
  0
LINE
  5
2594
330
24D0
100
AcDbEntity
  8
0
 62
     6
100
AcDbLine
 10
-23.08977598615757
 20
-4.129999999996513
 30
0.0
 11
-25.11977598615757
 21
-4.129999999996499
 31
0.0
  0
LINE
  5
2595
330
24D0
100
AcDbEntity
  8
0
 62
     6
100
AcDbLine
 10
-25.11977598615757
 20
-4.129999999996499
 30
0.0
 11
-27.14977598615757
 21
-4.129999999996513
 31
0.0
  0
LINE
  5
2596
330
24D0
100
AcDbEntity
  8
0
 62
     6
100
AcDbLine
 10
-27.14977598615757
 20
-4.129999999996513
 30
0.0
 11
-27.14977598615757
 21
-7.270000000000578
 31
0.0
  0
LINE
  5
2597
330
24D0
100
AcDbEntity
  8
0
 62
     6
100
AcDbLine
 10
-27.14977598615757
 20
-7.270000000000578
 30
0.0
 11
-28.16977598615758
 21
-7.270000000000578
 31
0.0
  0
LINE
  5
2598
330
24D0
100
AcDbEntity
  8
0
 62
     6
100
AcDbLine
 10
-28.16977598615758
 20
-7.270000000000578
 30
0.0
 11
-28.16977598615758
 21
-4.770000000000678
 31
0.0
  0
LINE
  5
2599
330
24D0
100
AcDbEntity
  8
AM_7
100
AcDbLine
 10
-25.11977598615757
 20
-8.270000000000337
 30
0.0
 11
-25.11977598615757
 21
6.064408140494421
 31
0.0
1001
GENIUS_GENOREF_13
1005
0
  0
LINE
  5
259A
330
24D0
100
AcDbEntity
  8
AM_7
100
AcDbLine
 10
-28.79473645994678
 20
-0.0000000000000142
 30
0.0
 11
-21.5949373807896
 21
-0.0000000000000142
 31
0.0
1001
GENIUS_GENODEF_13
1002
{
1000
HIER
1070
     0
1002
}
1002
{
1000
MANEDIT
1070
     0
1002
}
1002
{
1000
NOSEL
1070
     0
1002
}
1002
{
1000
BEHIND
1070
     0
1002
}
1002
{
1000
OTHER
1070
     0
1002
}
1002
{
1000
REACTOR
1002
}
1001
GENIUS_GENOBJ-N-CEN_13
1002
{
1000
OWNER
1000
GEN
1002
}
1001
GENIUS_GENCEN_19
1002
{
1040
0.625510735303874
1002
}
  0
LINE
  5
259B
330
24D0
100
AcDbEntity
  8
0
 62
    51
100
AcDbLine
 10
-25.11977598615756
 20
-7.270000000000152
 30
0.0
 11
-24.78477598615756
 21
-7.270000000000152
 31
0.0
  0
LINE
  5
259C
330
24D0
100
AcDbEntity
  8
0
 62
    51
100
AcDbLine
 10
-24.48477598615755
 20
-4.130000000000677
 30
0.0
 11
-24.48477598615755
 21
-6.97000000000014
 31
0.0
  0
LINE
  5
259D
330
24D0
100
AcDbEntity
  8
0
 62
    51
100
AcDbLine
 10
-24.78477598615756
 20
-7.270000000000152
 30
0.0
 11
-24.48477598615755
 21
-6.97000000000014
 31
0.0
1001
GENIUS_GENFIL_13
1070
     0
1040
0.3
1040
0.3
1040
0.3000000000000007
1040
44.99999999999983
1000
~T
1001
GENIUS_GENOREF_13
1005
25B6
  0
LINE
  5
259E
330
24D0
100
AcDbEntity
  8
0
 62
    51
100
AcDbLine
 10
-25.11977598615756
 20
-6.97000000000014
 30
0.0
 11
-24.48477598615756
 21
-6.97000000000014
 31
0.0
  0
LINE
  5
259F
330
24D0
100
AcDbEntity
  8
0
 62
    51
100
AcDbLine
 10
-25.11977598615756
 20
-7.270000000000152
 30
0.0
 11
-25.45477598615756
 21
-7.270000000000152
 31
0.0
  0
LINE
  5
25A0
330
24D0
100
AcDbEntity
  8
0
 62
    51
100
AcDbLine
 10
-25.75477598615759
 20
-4.130000000000691
 30
0.0
 11
-25.75477598615757
 21
-6.970000000000155
 31
0.0
  0
LINE
  5
25A1
330
24D0
100
AcDbEntity
  8
0
 62
    51
100
AcDbLine
 10
-25.45477598615756
 20
-7.270000000000152
 30
0.0
 11
-25.75477598615757
 21
-6.970000000000155
 31
0.0
1001
GENIUS_GENFIL_13
1070
     0
1040
0.3
1040
0.3
1040
0.3000000000000007
1040
44.99999999999983
1000
~T
1001
GENIUS_GENOREF_13
1005
25B5
  0
LINE
  5
25A2
330
24D0
100
AcDbEntity
  8
0
 62
    51
100
AcDbLine
 10
-25.11977598615756
 20
-6.97000000000014
 30
0.0
 11
-25.75477598615756
 21
-6.970000000000155
 31
0.0
  0
LINE
  5
25A3
330
24D0
100
AcDbEntity
  8
0
 62
     6
100
AcDbLine
 10
-28.46977598615757
 20
4.770000000003463
 30
0.0
 11
-21.76977598615757
 21
4.770000000003463
 31
0.0
  0
LINE
  5
25A4
330
24D0
100
AcDbEntity
  8
0
 62
     6
100
AcDbLine
 10
-23.08977598615757
 20
-4.770000000000692
 30
0.0
 11
-21.76977598615757
 21
-4.770000000000692
 31
0.0
  0
LINE
  5
25A5
330
24D0
100
AcDbEntity
  8
0
 62
     6
100
AcDbLine
 10
-21.76977598615757
 20
-4.770000000000692
 30
0.0
 11
-21.76977598615757
 21
4.770000000003449
 31
0.0
  0
LINE
  5
25A6
330
24D0
100
AcDbEntity
  8
0
 62
     6
100
AcDbLine
 10
-27.14977598615757
 20
-4.770000000000692
 30
0.0
 11
-28.46977598615758
 21
-4.770000000000692
 31
0.0
  0
LINE
  5
25A7
330
24D0
100
AcDbEntity
  8
0
 62
     6
100
AcDbLine
 10
-28.46977598615758
 20
-4.770000000000692
 30
0.0
 11
-28.46977598615757
 21
4.770000000003463
 31
0.0
  0
LINE
  5
25A8
330
24D0
100
AcDbEntity
  8
0
 62
     6
100
AcDbLine
 10
33.97830337428223
 20
4.770000000003378
 30
0.0
 11
40.67830337428222
 21
4.770000000003363
 31
0.0
  0
LINE
  5
25A9
330
24D0
100
AcDbEntity
  8
0
 62
     6
100
AcDbLine
 10
40.37830337428224
 20
-4.770000000000763
 30
0.0
 11
40.37830337428224
 21
-7.270000000000663
 31
0.0
  0
LINE
  5
25AA
330
24D0
100
AcDbEntity
  8
0
 62
     6
100
AcDbLine
 10
40.37830337428224
 20
-7.270000000000663
 30
0.0
 11
39.35830337428224
 21
-7.270000000000663
 31
0.0
  0
LINE
  5
25AB
330
24D0
100
AcDbEntity
  8
0
 62
     6
100
AcDbLine
 10
39.35830337428224
 20
-7.270000000000663
 30
0.0
 11
39.35830337428224
 21
-4.129999999996606
 31
0.0
  0
LINE
  5
25AC
330
24D0
100
AcDbEntity
  8
0
 62
     6
100
AcDbLine
 10
39.35830337428224
 20
-4.129999999996606
 30
0.0
 11
37.32830337428224
 21
-4.129999999996599
 31
0.0
  0
LINE
  5
25AD
330
24D0
100
AcDbEntity
  8
0
 62
     6
100
AcDbLine
 10
37.32830337428224
 20
-4.129999999996591
 30
0.0
 11
35.29830337428224
 21
-4.129999999996606
 31
0.0
  0
LINE
  5
25AE
330
24D0
100
AcDbEntity
  8
0
 62
     6
100
AcDbLine
 10
35.29830337428224
 20
-4.129999999996606
 30
0.0
 11
35.29830337428224
 21
-7.270000000000663
 31
0.0
  0
LINE
  5
25AF
330
24D0
100
AcDbEntity
  8
0
 62
     6
100
AcDbLine
 10
35.29830337428224
 20
-7.270000000000663
 30
0.0
 11
34.27830337428222
 21
-7.270000000000663
 31
0.0
  0
LINE
  5
25B0
330
24D0
100
AcDbEntity
  8
0
 62
     6
100
AcDbLine
 10
34.27830337428222
 20
-7.270000000000663
 30
0.0
 11
34.27830337428222
 21
-4.770000000000763
 31
0.0
  0
LINE
  5
25B1
330
24D0
100
AcDbEntity
  8
0
 62
     6
100
AcDbLine
 10
39.35830337428224
 20
-4.770000000000763
 30
0.0
 11
40.67830337428222
 21
-4.770000000000763
 31
0.0
  0
LINE
  5
25B2
330
24D0
100
AcDbEntity
  8
0
 62
     6
100
AcDbLine
 10
40.67830337428222
 20
-4.770000000000763
 30
0.0
 11
40.67830337428222
 21
4.770000000003378
 31
0.0
  0
LINE
  5
25B3
330
24D0
100
AcDbEntity
  8
0
 62
     6
100
AcDbLine
 10
35.29830337428224
 20
-4.770000000000763
 30
0.0
 11
33.97830337428223
 21
-4.770000000000763
 31
0.0
  0
LINE
  5
25B4
330
24D0
100
AcDbEntity
  8
0
 62
     6
100
AcDbLine
 10
33.97830337428223
 20
-4.770000000000763
 30
0.0
 11
33.97830337428223
 21
4.770000000003378
 31
0.0
  0
POINT
  5
25B5
330
24D0
100
AcDbEntity
  8
0
 60
     1
100
AcDbPoint
 10
-48.73010343227687
 20
-9.465547619522652
 30
0.0
 50
180.0000000000006
1001
GENIUS_GENOBJ-N-CHA_13
1002
{
1000
OWNER
1000
GEN
1002
}
1001
GENIUS_GENOENT_13
1002
{
1000
MYREF
1005
25B5
1002
}
1002
{
1000
GRP
1005
0
1002
}
1001
GENIUS_GENOLIS_13
1002
{
1000
ENT
1005
0
1005
25A1
1002
}
1001
GENIUS_GENODEF_13
1002
{
1000
HIER
1070
     1
1002
}
1002
{
1000
MANEDIT
1070
     1
1002
}
1002
{
1000
NOSEL
1070
     0
1002
}
1002
{
1000
BEHIND
1070
     0
1002
}
1002
{
1000
OTHER
1070
     0
1002
}
1002
{
1000
REACTOR
1002
}
  0
POINT
  5
25B6
330
24D0
100
AcDbEntity
  8
0
 60
     1
100
AcDbPoint
 10
-71.40245251266964
 20
-9.465547619522766
 30
0.0
1001
GENIUS_GENOBJ-N-CHA_13
1002
{
1000
OWNER
1000
GEN
1002
}
1001
GENIUS_GENOENT_13
1002
{
1000
MYREF
1005
25B6
1002
}
1002
{
1000
GRP
1005
0
1002
}
1001
GENIUS_GENOLIS_13
1002
{
1000
ENT
1005
0
1005
259D
1002
}
1001
GENIUS_GENODEF_13
1002
{
1000
HIER
1070
     1
1002
}
1002
{
1000
MANEDIT
1070
     1
1002
}
1002
{
1000
NOSEL
1070
     0
1002
}
1002
{
1000
BEHIND
1070
     0
1002
}
1002
{
1000
OTHER
1070
     0
1002
}
1002
{
1000
REACTOR
1002
}
  0
ENDBLK
  5
25BA
330
24D0
100
AcDbEntity
  8
0
100
AcDbBlockEnd
  0
ENDSEC
  0
SECTION
  2
ENTITIES
  0
CIRCLE
  5
23B7
330
23
100
AcDbEntity
  8
PV0005_1
  6
Continuous
 48
0.5
370
    30
100
AcDbCircle
 10
99.02737988871807
 20
43.56468557517771
 30
0.0
 40
0.85
  0
LINE
  5
23B8
330
23
100
AcDbEntity
  8
AM_7
 48
0.5
100
AcDbLine
 10
99.02737988871807
 20
44.52468558948278
 30
0.0
 11
99.02737988871807
 21
42.60468556087261
 31
0.0
1001
GENIUS_GENODEF_13
1002
{
1000
HIER
1070
     0
1002
}
1002
{
1000
MANEDIT
1070
     0
1002
}
1002
{
1000
NOSEL
1070
     0
1002
}
1002
{
1000
BEHIND
1070
     0
1002
}
1002
{
1000
OTHER
1070
     0
1002
}
1002
{
1000
REACTOR
1002
}
1001
GENIUS_GENOBJ-N-CEN_13
1002
{
1000
OWNER
1000
GEN
1002
}
1001
GENIUS_GENCEN_19
1002
{
1040
0.1600000023841801
1002
}
  0
LINE
  5
23B9
330
23
100
AcDbEntity
  8
AM_7
 48
0.5
100
AcDbLine
 10
98.06737987441302
 20
43.56468557517771
 30
0.0
 11
99.98737990302316
 21
43.56468557517771
 31
0.0
1001
GENIUS_GENODEF_13
1002
{
1000
HIER
1070
     0
1002
}
1002
{
1000
MANEDIT
1070
     0
1002
}
1002
{
1000
NOSEL
1070
     0
1002
}
1002
{
1000
BEHIND
1070
     0
1002
}
1002
{
1000
OTHER
1070
     0
1002
}
1002
{
1000
REACTOR
1002
}
1001
GENIUS_GENOBJ-N-CEN_13
1002
{
1000
OWNER
1000
GEN
1002
}
1001
GENIUS_GENCEN_19
1002
{
1040
0.1600000023841801
1002
}
  0
LINE
  5
23BA
330
23
100
AcDbEntity
  8
AM_7
 48
0.5
100
AcDbLine
 10
101.5673798887181
 20
41.98468558948278
 30
0.0
 11
101.5673798887181
 21
40.06468556087263
 31
0.0
1001
GENIUS_GENODEF_13
1002
{
1000
HIER
1070
     0
1002
}
1002
{
1000
MANEDIT
1070
     0
1002
}
1002
{
1000
NOSEL
1070
     0
1002
}
1002
{
1000
BEHIND
1070
     0
1002
}
1002
{
1000
OTHER
1070
     0
1002
}
1002
{
1000
REACTOR
1002
}
1001
GENIUS_GENOBJ-N-CEN_13
1002
{
1000
OWNER
1000
GEN
1002
}
1001
GENIUS_GENCEN_19
1002
{
1040
0.1600000023841801
1002
}
  0
LINE
  5
23BB
330
23
100
AcDbEntity
  8
AM_7
 48
0.5
100
AcDbLine
 10
100.607379874413
 20
41.02468557517771
 30
0.0
 11
102.5273799030231
 21
41.02468557517771
 31
0.0
1001
GENIUS_GENODEF_13
1002
{
1000
HIER
1070
     0
1002
}
1002
{
1000
MANEDIT
1070
     0
1002
}
1002
{
1000
NOSEL
1070
     0
1002
}
1002
{
1000
BEHIND
1070
     0
1002
}
1002
{
1000
OTHER
1070
     0
1002
}
1002
{
1000
REACTOR
1002
}
1001
GENIUS_GENOBJ-N-CEN_13
1002
{
1000
OWNER
1000
GEN
1002
}
1001
GENIUS_GENCEN_19
1002
{
1040
0.1600000023841801
1002
}
  0
LINE
  5
23BC
330
23
100
AcDbEntity
  8
AM_7
 48
0.5
100
AcDbLine
 10
104.107379888718
 20
44.52468558948278
 30
0.0
 11
104.107379888718
 21
42.60468556087261
 31
0.0
1001
GENIUS_GENODEF_13
1002
{
1000
HIER
1070
     0
1002
}
1002
{
1000
MANEDIT
1070
     0
1002
}
1002
{
1000
NOSEL
1070
     0
1002
}
1002
{
1000
BEHIND
1070
     0
1002
}
1002
{
1000
OTHER
1070
     0
1002
}
1002
{
1000
REACTOR
1002
}
1001
GENIUS_GENOBJ-N-CEN_13
1002
{
1000
OWNER
1000
GEN
1002
}
1001
GENIUS_GENCEN_19
1002
{
1040
0.1600000023841801
1002
}
  0
LINE
  5
23BD
330
23
100
AcDbEntity
  8
AM_7
 48
0.5
100
AcDbLine
 10
103.147379874413
 20
43.56468557517771
 30
0.0
 11
105.0673799030231
 21
43.56468557517771
 31
0.0
1001
GENIUS_GENODEF_13
1002
{
1000
HIER
1070
     0
1002
}
1002
{
1000
MANEDIT
1070
     0
1002
}
1002
{
1000
NOSEL
1070
     0
1002
}
1002
{
1000
BEHIND
1070
     0
1002
}
1002
{
1000
OTHER
1070
     0
1002
}
1002
{
1000
REACTOR
1002
}
1001
GENIUS_GENOBJ-N-CEN_13
1002
{
1000
OWNER
1000
GEN
1002
}
1001
GENIUS_GENCEN_19
1002
{
1040
0.1600000023841801
1002
}
  0
LINE
  5
23BE
330
23
100
AcDbEntity
  8
AM_7
 48
0.5
100
AcDbLine
 10
104.107379888718
 20
39.4446855894828
 30
0.0
 11
104.107379888718
 21
37.52468556087264
 31
0.0
1001
GENIUS_GENODEF_13
1002
{
1000
HIER
1070
     0
1002
}
1002
{
1000
MANEDIT
1070
     0
1002
}
1002
{
1000
NOSEL
1070
     0
1002
}
1002
{
1000
BEHIND
1070
     0
1002
}
1002
{
1000
OTHER
1070
     0
1002
}
1002
{
1000
REACTOR
1002
}
1001
GENIUS_GENOBJ-N-CEN_13
1002
{
1000
OWNER
1000
GEN
1002
}
1001
GENIUS_GENCEN_19
1002
{
1040
0.1600000023841801
1002
}
  0
LINE
  5
23BF
330
23
100
AcDbEntity
  8
AM_7
 48
0.5
100
AcDbLine
 10
103.147379874413
 20
38.48468557517771
 30
0.0
 11
105.0673799030231
 21
38.48468557517771
 31
0.0
1001
GENIUS_GENODEF_13
1002
{
1000
HIER
1070
     0
1002
}
1002
{
1000
MANEDIT
1070
     0
1002
}
1002
{
1000
NOSEL
1070
     0
1002
}
1002
{
1000
BEHIND
1070
     0
1002
}
1002
{
1000
OTHER
1070
     0
1002
}
1002
{
1000
REACTOR
1002
}
1001
GENIUS_GENOBJ-N-CEN_13
1002
{
1000
OWNER
1000
GEN
1002
}
1001
GENIUS_GENCEN_19
1002
{
1040
0.1600000023841801
1002
}
  0
LINE
  5
23C0
330
23
100
AcDbEntity
  8
AM_7
 48
0.5
100
AcDbLine
 10
99.02737988871807
 20
39.4446855894828
 30
0.0
 11
99.02737988871807
 21
37.52468556087264
 31
0.0
1001
GENIUS_GENODEF_13
1002
{
1000
HIER
1070
     0
1002
}
1002
{
1000
MANEDIT
1070
     0
1002
}
1002
{
1000
NOSEL
1070
     0
1002
}
1002
{
1000
BEHIND
1070
     0
1002
}
1002
{
1000
OTHER
1070
     0
1002
}
1002
{
1000
REACTOR
1002
}
1001
GENIUS_GENOBJ-N-CEN_13
1002
{
1000
OWNER
1000
GEN
1002
}
1001
GENIUS_GENCEN_19
1002
{
1040
0.1600000023841801
1002
}
  0
LINE
  5
23C1
330
23
100
AcDbEntity
  8
AM_7
 48
0.5
100
AcDbLine
 10
98.06737987441302
 20
38.48468557517771
 30
0.0
 11
99.98737990302316
 21
38.48468557517771
 31
0.0
1001
GENIUS_GENODEF_13
1002
{
1000
HIER
1070
     0
1002
}
1002
{
1000
MANEDIT
1070
     0
1002
}
1002
{
1000
NOSEL
1070
     0
1002
}
1002
{
1000
BEHIND
1070
     0
1002
}
1002
{
1000
OTHER
1070
     0
1002
}
1002
{
1000
REACTOR
1002
}
1001
GENIUS_GENOBJ-N-CEN_13
1002
{
1000
OWNER
1000
GEN
1002
}
1001
GENIUS_GENCEN_19
1002
{
1040
0.1600000023841801
1002
}
  0
CIRCLE
  5
23C2
330
23
100
AcDbEntity
  8
PV0005_1
  6
Continuous
 48
0.5
370
    30
100
AcDbCircle
 10
104.107379888718
 20
43.56468557517771
 30
0.0
 40
0.85
  0
CIRCLE
  5
23C3
330
23
100
AcDbEntity
  8
PV0005_1
  6
Continuous
 48
0.5
370
    30
100
AcDbCircle
 10
101.5673798887181
 20
41.02468557517771
 30
0.0
 40
0.85
  0
CIRCLE
  5
23C4
330
23
100
AcDbEntity
  8
PV0005_1
  6
Continuous
 48
0.5
370
    30
100
AcDbCircle
 10
104.107379888718
 20
38.48468557517771
 30
0.0
 40
0.85
  0
CIRCLE
  5
23C5
330
23
100
AcDbEntity
  8
PV0005_1
  6
Continuous
 48
0.5
370
    30
100
AcDbCircle
 10
99.02737988871807
 20
38.48468557517771
 30
0.0
 40
0.85
  0
MTEXT
  5
23DB
330
23
100
AcDbEntity
  8
0
100
AcDbMText
 10
94.71952718271872
 20
34.56859614763168
 30
0.0
 40
1.0
 41
21.93347515516484
 46
0.0
 71
     1
 72
     5
  1
{\L基板取付穴推奨寸法}
 73
     1
 44
1.0
1001
ACAD
1000
ACAD_MTEXT_COLUMN_INFO_BEGIN
1070
    75
1070
     2
1070
    79
1070
     0
1070
    76
1070
     1
1070
    78
1070
     0
1070
    48
1040
21.93347515516484
1070
    49
1040
15.0
1070
    50
1070
     1
1040
0.0
1000
ACAD_MTEXT_COLUMN_INFO_END
  0
MTEXT
  5
23EC
330
23
100
AcDbEntity
  8
0
100
AcDbMText
 10
17.40733264412301
 20
5.241828636665331
 30
0.0
 40
2.0
 41
25.81478767407816
 46
0.0
 71
     1
 72
     5
  1
【BM1-LR-PC】
 73
     1
 44
1.0
1001
ACAD
1000
ACAD_MTEXT_COLUMN_INFO_BEGIN
1070
    75
1070
     2
1070
    79
1070
     0
1070
    76
1070
     1
1070
    78
1070
     0
1070
    48
1040
25.81478767407816
1070
    49
1040
15.0
1070
    50
1070
     1
1040
0.0
1000
ACAD_MTEXT_COLUMN_INFO_END
  0
LINE
  5
25E7
330
23
100
AcDbEntity
  8
AM_7
100
AcDbLine
 10
38.24424890019555
 20
47.08909371567213
 30
0.0
 11
38.24424890019555
 21
39.71605722110215
 31
0.0
1001
GENIUS_GENODEF_13
1002
{
1000
HIER
1070
     0
1002
}
1002
{
1000
MANEDIT
1070
     0
1002
}
1002
{
1000
NOSEL
1070
     0
1002
}
1002
{
1000
BEHIND
1070
     0
1002
}
1002
{
1000
OTHER
1070
     0
1002
}
1002
{
1000
REACTOR
1002
}
1001
GENIUS_GENOBJ-N-CEN_13
1002
{
1000
OWNER
1000
GEN
1002
}
1001
GENIUS_GENCEN_19
1002
{
1040
1.294408140494453
1002
}
  0
LINE
  5
25E8
330
23
100
AcDbEntity
  8
AM_7
100
AcDbLine
 10
38.24424890019555
 20
31.62408721697813
 30
0.0
 11
38.24424890019555
 21
39.6142136941271
 31
0.0
  0
LINE
  5
25E9
330
23
100
AcDbEntity
  8
0
100
AcDbLine
 10
37.60420268940425
 20
36.8946855751777
 30
0.0
 11
37.60420268940425
 21
34.0546855751777
 31
0.0
  0
LINE
  5
25EA
330
23
100
AcDbEntity
  8
0
100
AcDbLine
 10
38.87420268940423
 20
34.0546855751777
 30
0.0
 11
38.87420268940423
 21
36.89468557517769
 31
0.0
  0
LINE
  5
25EB
330
23
100
AcDbEntity
  8
0
 48
0.5
100
AcDbLine
 10
38.87420268940426
 20
34.0546855751777
 30
0.0
 11
37.60420268940428
 21
34.0546855751777
 31
0.0
1001
DIMEXPLODE
1070
     0
  0
LINE
  5
25EC
330
23
100
AcDbEntity
  8
0
100
AcDbLine
 10
37.90420268940429
 20
33.75468557517769
 30
0.0
 11
38.57420268940425
 21
33.75468557517769
 31
0.0
  0
LINE
  5
25ED
330
23
100
AcDbEntity
  8
0
 48
0.5
100
AcDbLine
 10
38.87420268940426
 20
34.0546855751777
 30
0.0
 11
38.57420268940425
 21
33.75468557517769
 31
0.0
1001
DIMEXPLODE
1070
     0
1001
GENIUS_GENFIL_13
1070
     1
1040
0.2
1040
0.8333333333333332
1040
0.3
1040
45.0
1002
{
1002
}
1001
GENIUS_GENODEF_13
1002
{
1000
HIER
1070
     0
1002
}
1002
{
1000
MANEDIT
1070
     0
1002
}
1002
{
1000
NOSEL
1070
     0
1002
}
1002
{
1000
BEHIND
1070
     0
1002
}
1002
{
1000
OTHER
1070
     0
1002
}
1002
{
1000
REACTOR
1002
}
1001
GENIUS_GENOBJ-N-CHA_13
1002
{
1000
OWNER
1000
GEN
1002
}
  0
LINE
  5
25EE
330
23
100
AcDbEntity
  8
0
 48
0.5
100
AcDbLine
 10
37.60420268940428
 20
34.0546855751777
 30
0.0
 11
37.90420268940429
 21
33.75468557517769
 31
0.0
1001
DIMEXPLODE
1070
     0
1001
GENIUS_GENFIL_13
1070
     1
1040
0.2
1040
0.8333333333333332
1040
0.3
1040
45.0
1002
{
1002
}
1001
GENIUS_GENODEF_13
1002
{
1000
HIER
1070
     0
1002
}
1002
{
1000
MANEDIT
1070
     0
1002
}
1002
{
1000
NOSEL
1070
     0
1002
}
1002
{
1000
BEHIND
1070
     0
1002
}
1002
{
1000
OTHER
1070
     0
1002
}
1002
{
1000
REACTOR
1002
}
1001
GENIUS_GENOBJ-N-CHA_13
1002
{
1000
OWNER
1000
GEN
1002
}
  0
LINE
  5
25F4
330
23
100
AcDbEntity
  8
0
100
AcDbLine
 10
45.63424890019553
 20
19.10009127663177
 30
0.0
 11
45.63424890019553
 21
12.40009127662791
 31
0.0
  0
LINE
  5
25F5
330
23
100
AcDbEntity
  8
0
100
AcDbLine
 10
34.63424890019554
 20
19.10009127663177
 30
0.0
 11
34.63424890019554
 21
12.40009127662791
 31
0.0
  0
LINE
  5
25F6
330
23
100
AcDbEntity
  8
0
100
AcDbLine
 10
41.29424890019548
 20
12.70009127663565
 30
0.0
 11
40.27424890019551
 21
12.70009127663565
 31
0.0
  0
LINE
  5
25F7
330
23
100
AcDbEntity
  8
0
100
AcDbLine
 10
36.21424890019552
 20
12.70009127663562
 30
0.0
 11
35.19424890019554
 21
12.70009127663565
 31
0.0
  0
LINE
  5
25F8
330
23
100
AcDbEntity
  8
0
100
AcDbLine
 10
34.63424890019553
 20
19.10009127663566
 30
0.0
 11
45.63424890019553
 21
19.10009127663566
 31
0.0
  0
LINE
  5
25F9
330
23
100
AcDbEntity
  8
AM_7
100
AcDbLine
 10
34.02899718894727
 20
15.7500912766361
 30
0.0
 11
59.24391878820483
 21
15.7500912766282
 31
0.0
1001
GENIUS_GENODEF_13
1002
{
1000
HIER
1070
     0
1002
}
1002
{
1000
MANEDIT
1070
     0
1002
}
1002
{
1000
NOSEL
1070
     0
1002
}
1002
{
1000
BEHIND
1070
     0
1002
}
1002
{
1000
OTHER
1070
     0
1002
}
1002
{
1000
REACTOR
1002
}
1001
GENIUS_GENOBJ-N-CEN_13
1002
{
1000
OWNER
1000
GEN
1002
}
1001
GENIUS_GENCEN_19
1002
{
1040
3.118999999999999
1002
}
  0
LINE
  5
25FA
330
23
100
AcDbEntity
  8
0
100
AcDbLine
 10
40.27424890019552
 20
17.78009127663561
 30
0.0
 11
40.27424890019552
 21
18.80009127663561
 31
0.0
  0
LINE
  5
25FB
330
23
100
AcDbEntity
  8
0
100
AcDbLine
 10
34.63424890019554
 20
17.78009127663561
 30
0.0
 11
36.99424890019554
 21
17.78009127663561
 31
0.0
  0
LINE
  5
25FC
330
23
100
AcDbEntity
  8
0
100
AcDbLine
 10
39.49424890019555
 20
17.78009127663566
 30
0.0
 11
45.63424890019553
 21
17.78009127663551
 31
0.0
  0
LINE
  5
25FD
330
23
100
AcDbEntity
  8
0
100
AcDbLine
 10
36.21424890019552
 20
17.78009127663561
 30
0.0
 11
36.21424890019552
 21
18.80009127663561
 31
0.0
  0
LINE
  5
25FE
330
23
100
AcDbEntity
  8
0
100
AcDbLine
 10
41.29424890019549
 20
17.78009127663561
 30
0.0
 11
41.29424890019549
 21
18.80009127663561
 31
0.0
  0
LINE
  5
25FF
330
23
100
AcDbEntity
  8
AM_7
 48
0.5
100
AcDbLine
 10
35.70424890019552
 20
19.35009136246624
 30
0.0
 11
35.70424890019552
 21
17.23009119080498
 31
0.0
1001
GENIUS_GENOBJ-N-CEN_13
1002
{
1000
OWNER
1000
GEN
1002
}
1001
GENIUS_GENODEF_13
1002
{
1000
HIER
1070
     0
1002
}
1002
{
1000
MANEDIT
1070
     0
1002
}
1002
{
1000
NOSEL
1070
     0
1002
}
1002
{
1000
BEHIND
1070
     0
1002
}
1002
{
1000
OTHER
1070
     0
1002
}
1002
{
1000
REACTOR
1002
}
1001
GENIUS_GENCEN_19
1002
{
1040
0.09200000762939
1002
}
  0
LINE
  5
2600
330
23
100
AcDbEntity
  8
AM_7
 48
0.5
100
AcDbLine
 10
34.55341567285038
 20
18.2900912766356
 30
0.0
 11
41.93508212754068
 21
18.2900912766356
 31
0.0
1001
GENIUS_GENODEF_13
1002
{
1000
HIER
1070
     0
1002
}
1002
{
1000
MANEDIT
1070
     0
1002
}
1002
{
1000
NOSEL
1070
     0
1002
}
1002
{
1000
BEHIND
1070
     0
1002
}
1002
{
1000
OTHER
1070
     0
1002
}
1002
{
1000
REACTOR
1002
}
1001
GENIUS_GENOBJ-N-CEN_13
1002
{
1000
OWNER
1000
GEN
1002
}
1001
GENIUS_GENCEN_19
1002
{
1040
0.0920000076293917
1002
}
  0
LINE
  5
2601
330
23
100
AcDbEntity
  8
AM_7
 48
0.5
100
AcDbLine
 10
40.7842489001955
 20
19.35009136246624
 30
0.0
 11
40.7842489001955
 21
17.23009119080498
 31
0.0
1001
GENIUS_GENOBJ-N-CEN_13
1002
{
1000
OWNER
1000
GEN
1002
}
1001
GENIUS_GENODEF_13
1002
{
1000
HIER
1070
     0
1002
}
1002
{
1000
MANEDIT
1070
     0
1002
}
1002
{
1000
NOSEL
1070
     0
1002
}
1002
{
1000
BEHIND
1070
     0
1002
}
1002
{
1000
OTHER
1070
     0
1002
}
1002
{
1000
REACTOR
1002
}
1001
GENIUS_GENCEN_19
1002
{
1040
0.09200000762939
1002
}
  0
LINE
  5
2602
330
23
100
AcDbEntity
  8
0
100
AcDbLine
 10
40.27424890019552
 20
13.72009127663561
 30
0.0
 11
40.27424890019552
 21
12.70009127663562
 31
0.0
  0
LINE
  5
2603
330
23
100
AcDbEntity
  8
0
100
AcDbLine
 10
36.21424890019552
 20
13.72009127663561
 30
0.0
 11
36.21424890019552
 21
12.70009127663562
 31
0.0
  0
LINE
  5
2604
330
23
100
AcDbEntity
  8
0
100
AcDbLine
 10
41.29424890019549
 20
13.72009127663561
 30
0.0
 11
41.29424890019549
 21
12.70009127663562
 31
0.0
  0
LINE
  5
2605
330
23
100
AcDbEntity
  8
AM_7
 48
0.5
100
AcDbLine
 10
35.70424890019552
 20
12.15009119080498
 30
0.0
 11
35.70424890019552
 21
14.27009136246624
 31
0.0
1001
GENIUS_GENOBJ-N-CEN_13
1002
{
1000
OWNER
1000
GEN
1002
}
1001
GENIUS_GENODEF_13
1002
{
1000
HIER
1070
     0
1002
}
1002
{
1000
MANEDIT
1070
     0
1002
}
1002
{
1000
NOSEL
1070
     0
1002
}
1002
{
1000
BEHIND
1070
     0
1002
}
1002
{
1000
OTHER
1070
     0
1002
}
1002
{
1000
REACTOR
1002
}
1001
GENIUS_GENCEN_19
1002
{
1040
0.09200000762939
1002
}
  0
LINE
  5
2606
330
23
100
AcDbEntity
  8
AM_7
 48
0.5
100
AcDbLine
 10
40.7842489001955
 20
12.15009119080498
 30
0.0
 11
40.7842489001955
 21
14.27009136246624
 31
0.0
1001
GENIUS_GENOBJ-N-CEN_13
1002
{
1000
OWNER
1000
GEN
1002
}
1001
GENIUS_GENODEF_13
1002
{
1000
HIER
1070
     0
1002
}
1002
{
1000
MANEDIT
1070
     0
1002
}
1002
{
1000
NOSEL
1070
     0
1002
}
1002
{
1000
BEHIND
1070
     0
1002
}
1002
{
1000
OTHER
1070
     0
1002
}
1002
{
1000
REACTOR
1002
}
1001
GENIUS_GENCEN_19
1002
{
1040
0.09200000762939
1002
}
  0
LINE
  5
2607
330
23
100
AcDbEntity
  8
0
100
AcDbLine
 10
34.63424890019554
 20
13.72009127663562
 30
0.0
 11
36.99424890019554
 21
13.72009127663561
 31
0.0
  0
LINE
  5
2608
330
23
100
AcDbEntity
  8
0
100
AcDbLine
 10
39.49424890019555
 20
13.72009127663561
 30
0.0
 11
45.63424890019553
 21
13.72009127663561
 31
0.0
  0
LINE
  5
2609
330
23
100
AcDbEntity
  8
0
100
AcDbLine
 10
39.49424890019555
 20
17.78009127663566
 30
0.0
 11
39.49424890019555
 21
19.10009127663406
 31
0.0
  0
LINE
  5
260A
330
23
100
AcDbEntity
  8
0
100
AcDbLine
 10
36.99424890019554
 20
12.40009127663433
 30
0.0
 11
36.99424890019554
 21
13.72009127663561
 31
0.0
  0
LINE
  5
260B
330
23
100
AcDbEntity
  8
0
100
AcDbLine
 10
39.49424890019555
 20
12.40009127663247
 30
0.0
 11
39.49424890019555
 21
13.72009127663561
 31
0.0
  0
LINE
  5
260C
330
23
100
AcDbEntity
  8
0
100
AcDbLine
 10
36.99424890019554
 20
17.78009127663566
 30
0.0
 11
36.99424890019554
 21
19.10009127663566
 31
0.0
  0
LINE
  5
260D
330
23
100
AcDbEntity
  8
AM_7
 48
0.5
100
AcDbLine
 10
34.55341567285038
 20
13.21009127663456
 30
0.0
 11
41.93508212754068
 21
13.21009127663456
 31
0.0
1001
GENIUS_GENODEF_13
1002
{
1000
HIER
1070
     0
1002
}
1002
{
1000
MANEDIT
1070
     0
1002
}
1002
{
1000
NOSEL
1070
     0
1002
}
1002
{
1000
BEHIND
1070
     0
1002
}
1002
{
1000
OTHER
1070
     0
1002
}
1002
{
1000
REACTOR
1002
}
1001
GENIUS_GENOBJ-N-CEN_13
1002
{
1000
OWNER
1000
GEN
1002
}
1001
GENIUS_GENCEN_19
1002
{
1040
0.0920000076293917
1002
}
  0
CIRCLE
  5
260E
330
23
100
AcDbEntity
  8
0
100
AcDbCircle
 10
38.24424890019555
 20
15.75009127663452
 30
0.0
 40
2.049999999999982
  0
LINE
  5
260F
330
23
100
AcDbEntity
  8
AM_7
100
AcDbLine
 10
33.59787897736032
 20
41.02468557517773
 30
0.0
 11
59.21750903482002
 21
41.02468557517772
 31
0.0
1001
GENIUS_GENODEF_13
1002
{
1000
HIER
1070
     0
1002
}
1002
{
1000
MANEDIT
1070
     0
1002
}
1002
{
1000
NOSEL
1070
     0
1002
}
1002
{
1000
BEHIND
1070
     0
1002
}
1002
{
1000
OTHER
1070
     0
1002
}
1002
{
1000
REACTOR
1002
}
1001
GENIUS_GENOBJ-N-CEN_13
1002
{
1000
OWNER
1000
GEN
1002
}
1001
GENIUS_GENCEN_19
1002
{
1040
2.931
1002
}
  0
LINE
  5
2610
330
23
100
AcDbEntity
  8
0
100
AcDbLine
 10
45.83424890018747
 20
13.0750912766345
 30
0.0
 11
45.63424890018739
 21
13.0750912766345
 31
0.0
  0
LINE
  5
2611
330
23
100
AcDbEntity
  8
AM_7
100
AcDbLine
 10
38.24424890019634
 20
19.41009127663565
 30
0.0
 11
38.24424890018662
 21
12.09009127663566
 31
0.0
1001
GENIUS_GENOBJ-N-CEN_13
1002
{
1000
OWNER
1000
GEN
1002
}
1001
GENIUS_GENODEF_13
1002
{
1000
HIER
1070
     0
1002
}
1002
{
1000
MANEDIT
1070
     0
1002
}
1002
{
1000
NOSEL
1070
     0
1002
}
1002
{
1000
BEHIND
1070
     0
1002
}
1002
{
1000
OTHER
1070
     0
1002
}
1002
{
1000
REACTOR
1002
}
1001
GENIUS_GENCEN_19
1002
{
1040
0.6099999999999995
1002
}
  0
CIRCLE
  5
2612
330
23
100
AcDbEntity
  8
0
 48
0.1
100
AcDbCircle
 10
38.24424890019148
 20
15.75009127663566
 30
0.0
 40
0.3400462107872002
  0
CIRCLE
  5
2613
330
23
100
AcDbEntity
  8
0
 48
0.1
100
AcDbCircle
 10
38.24424890019148
 20
15.75009127663566
 30
0.0
 40
0.6400487908009002
  0
CIRCLE
  5
2614
330
23
100
AcDbEntity
  8
0
 48
0.1
100
AcDbCircle
 10
38.24424890019148
 20
15.75009127663452
 30
0.0
 40
0.6650025353662091
  0
CIRCLE
  5
2615
330
23
100
AcDbEntity
  8
0
 48
0.1
100
AcDbCircle
 10
38.24424890019555
 20
15.75009127663452
 30
0.0
 40
1.820000000000021
  0
CIRCLE
  5
2616
330
23
100
AcDbEntity
  8
0
 48
0.1
100
AcDbCircle
 10
38.24424890019555
 20
15.75009127663452
 30
0.0
 40
2.02000000000001
  0
LINE
  5
2617
330
23
100
AcDbEntity
  8
0
100
AcDbLine
 10
45.83424890019557
 20
38.34968557517772
 30
0.0
 11
45.63424890019549
 21
38.34968557517772
 31
0.0
  0
LINE
  5
2618
330
23
100
AcDbEntity
  8
0
100
AcDbLine
 10
45.63424890019551
 20
43.69968557517769
 30
0.0
 11
45.83424890019557
 21
43.69968557517771
 31
0.0
  0
LINE
  5
2619
330
23
100
AcDbEntity
  8
0
100
AcDbLine
 10
45.83424890019557
 20
37.02468557517772
 30
0.0
 11
45.83424890019557
 21
41.02468557517773
 31
0.0
  0
LINE
  5
261A
330
23
100
AcDbEntity
  8
0
100
AcDbLine
 10
45.83424890019557
 20
41.02468557517773
 30
0.0
 11
45.83424890019557
 21
45.02468557517771
 31
0.0
  0
LINE
  5
261B
330
23
100
AcDbEntity
  8
0
100
AcDbLine
 10
39.49424890019555
 20
36.8946855751777
 30
0.0
 11
38.24424890019555
 21
36.8946855751777
 31
0.0
  0
LINE
  5
261C
330
23
100
AcDbEntity
  8
0
100
AcDbLine
 10
38.24424890019555
 20
36.8946855751777
 30
0.0
 11
36.24464894019553
 21
36.8946855751777
 31
0.0
  0
LINE
  5
261D
330
23
100
AcDbEntity
  8
0
100
AcDbLine
 10
45.63424890019549
 20
41.02468557517773
 30
0.0
 11
45.63424890019553
 21
36.2546855751777
 31
0.0
  0
LINE
  5
261E
330
23
100
AcDbEntity
  8
0
100
AcDbLine
 10
45.63424890019553
 20
45.7946855751777
 30
0.0
 11
45.63424890019553
 21
41.02468557517773
 31
0.0
  0
LINE
  5
261F
330
23
100
AcDbEntity
  8
0
100
AcDbLine
 10
34.63424890019554
 20
45.7946855751777
 30
0.0
 11
45.63424890019553
 21
45.7946855751777
 31
0.0
  0
LINE
  5
2621
330
23
100
AcDbEntity
  8
0
100
AcDbLine
 10
36.24464894019553
 20
36.8946855751777
 30
0.0
 11
34.63424890019554
 21
36.8946855751777
 31
0.0
  0
LINE
  5
2622
330
23
100
AcDbEntity
  8
0
100
AcDbLine
 10
39.49424890019555
 20
36.8946855751777
 30
0.0
 11
39.49424890019555
 21
36.2546855751777
 31
0.0
  0
LINE
  5
2623
330
23
100
AcDbEntity
  8
0
100
AcDbLine
 10
41.29424890019551
 20
33.75468557517771
 30
0.0
 11
41.29424890019549
 21
36.25468557517771
 31
0.0
  0
LINE
  5
2624
330
23
100
AcDbEntity
  8
0
100
AcDbLine
 10
41.29424890019549
 20
33.7546855751777
 30
0.0
 11
40.27424890019552
 21
33.7546855751777
 31
0.0
  0
LINE
  5
2625
330
23
100
AcDbEntity
  8
0
100
AcDbLine
 10
40.27424890019552
 20
33.7546855751777
 30
0.0
 11
40.27424890019552
 21
36.2546855751777
 31
0.0
  0
LINE
  5
2626
330
23
100
AcDbEntity
  8
0
100
AcDbLine
 10
45.63424890019553
 20
36.2546855751777
 30
0.0
 11
39.49424890019555
 21
36.2546855751777
 31
0.0
  0
LINE
  5
2627
330
23
100
AcDbEntity
  8
0
100
AcDbLine
 10
36.99424890019554
 20
36.2546855751777
 30
0.0
 11
36.21424890019552
 21
36.2546855751777
 31
0.0
  0
LINE
  5
2628
330
23
100
AcDbEntity
  8
0
100
AcDbLine
 10
36.21424890019552
 20
33.7546855751777
 30
0.0
 11
35.19424890019553
 21
33.7546855751777
 31
0.0
  0
LINE
  5
2629
330
23
100
AcDbEntity
  8
0
100
AcDbLine
 10
36.21424890019552
 20
33.7546855751777
 30
0.0
 11
36.21424890019552
 21
36.2546855751777
 31
0.0
  0
LINE
  5
262A
330
23
100
AcDbEntity
  8
0
100
AcDbLine
 10
36.99424890019554
 20
36.2546855751777
 30
0.0
 11
36.99424890019554
 21
36.8946855751777
 31
0.0
  0
LINE
  5
262B
330
23
100
AcDbEntity
  8
0
100
AcDbLine
 10
35.19424890019553
 20
36.25468557517773
 30
0.0
 11
35.19424890019554
 21
33.75468557517771
 31
0.0
  0
LINE
  5
263B
330
23
100
AcDbEntity
  8
0
100
AcDbLine
 10
57.95424890019559
 20
37.66968537729037
 30
0.0
 11
57.95424890019559
 21
41.02468557517775
 31
0.0
1001
DIMEXPLODE
1070
     0
  0
LINE
  5
263D
330
23
100
AcDbEntity
  8
0
100
AcDbLine
 10
55.50424909093039
 20
37.07468558709874
 30
0.0
 11
55.50424909093039
 21
37.86968518655545
 31
0.0
1001
DIMEXPLODE
1070
     0
  0
LINE
  5
263F
330
23
100
AcDbEntity
  8
0
100
AcDbLine
 10
55.50424909093039
 20
37.86968518655545
 30
0.0
 11
55.06319665410178
 21
37.86968518655545
 31
0.0
1001
DIMEXPLODE
1070
     0
  0
LINE
  5
2641
330
23
100
AcDbEntity
  8
0
100
AcDbLine
 10
46.95424890019558
 20
45.02468557517771
 30
0.0
 11
46.95424890019558
 21
41.02468557517773
 31
0.0
1001
DIMEXPLODE
1070
     0
  0
LINE
  5
2642
330
23
100
AcDbEntity
  8
0
100
AcDbLine
 10
54.70424890019558
 20
37.66968537729037
 30
0.0
 11
46.95424890019558
 21
37.66968537729037
 31
0.0
1001
DIMEXPLODE
1070
     0
  0
LINE
  5
2643
330
23
100
AcDbEntity
  8
0
100
AcDbLine
 10
55.50424909093039
 20
37.07468558709874
 30
0.0
 11
56.90424870946067
 21
37.07468558709874
 31
0.0
1001
DIMEXPLODE
1070
     0
  0
LINE
  5
2647
330
23
100
AcDbEntity
  8
0
100
AcDbLine
 10
55.50424909093039
 20
37.86968518655545
 30
0.0
 11
56.90424870946067
 21
37.86968518655545
 31
0.0
1001
DIMEXPLODE
1070
     0
  0
LINE
  5
264B
330
23
100
AcDbEntity
  8
0
100
AcDbLine
 10
57.70424890019558
 20
37.66968537729037
 30
0.0
 11
57.95424890019559
 21
37.66968537729037
 31
0.0
1001
DIMEXPLODE
1070
     0
  0
LINE
  5
264C
330
23
100
AcDbEntity
  8
0
100
AcDbLine
 10
56.90424870946067
 20
37.86968518655545
 30
0.0
 11
57.34530114628928
 21
37.86968518655545
 31
0.0
1001
DIMEXPLODE
1070
     0
  0
LINE
  5
264D
330
23
100
AcDbEntity
  8
0
100
AcDbLine
 10
56.90424870946067
 20
37.07468558709874
 30
0.0
 11
56.90424870946067
 21
37.86968518655545
 31
0.0
1001
DIMEXPLODE
1070
     0
  0
LINE
  5
264E
330
23
100
AcDbEntity
  8
0
100
AcDbLine
 10
57.20424890019558
 20
37.86968518655545
 30
0.0
 11
57.20424890019558
 21
41.02468557517775
 31
0.0
1001
DIMEXPLODE
1070
     0
  0
LINE
  5
2651
330
23
100
AcDbEntity
  8
0
100
AcDbLine
 10
55.20424890019558
 20
37.86968518655545
 30
0.0
 11
55.20424890019558
 21
41.02468557517775
 31
0.0
1001
DIMEXPLODE
1070
     0
  0
ARC
  5
2654
330
23
100
AcDbEntity
  8
0
100
AcDbCircle
 10
56.20424890019559
 20
35.39968539636385
 30
0.0
 40
2.720826864242599
100
AcDbArc
 50
56.54355028922066
 51
65.20473559079542
1001
DIMEXPLODE
1070
     0
  0
ARC
  5
2657
330
23
100
AcDbEntity
  8
0
100
AcDbCircle
 10
56.20424890019559
 20
35.39968539636385
 30
0.0
 40
2.720826864242599
100
AcDbArc
 50
114.7952625879728
 51
123.4564478895444
1001
DIMEXPLODE
1070
     0
  0
LINE
  5
2659
330
23
100
AcDbEntity
  8
0
100
AcDbLine
 10
46.95424890019558
 20
41.02468557517773
 30
0.0
 11
46.95424890019561
 21
37.02468557517772
 31
0.0
1001
DIMEXPLODE
1070
     0
  0
LINE
  5
265B
330
23
100
AcDbEntity
  8
0
100
AcDbLine
 10
45.83424890019557
 20
45.02468557517771
 30
0.0
 11
46.95424890019558
 21
45.02468557517771
 31
0.0
  0
LINE
  5
265C
330
23
100
AcDbEntity
  8
0
100
AcDbLine
 10
45.83424890019557
 20
37.02468557517772
 30
0.0
 11
46.95424890019561
 21
37.02468557517772
 31
0.0
  0
LINE
  5
265D
330
23
100
AcDbEntity
  8
0
100
AcDbLine
 10
74.87255246521264
 20
37.07468558709874
 30
0.0
 11
74.87255246521264
 21
37.7435230685731
 31
0.0
1001
DIMEXPLODE
1070
     0
  0
LINE
  5
265E
330
23
100
AcDbEntity
  8
0
100
AcDbLine
 10
74.87255246521264
 20
37.07468558709874
 30
0.0
 11
76.27255208374291
 21
37.07468558709874
 31
0.0
1001
DIMEXPLODE
1070
     0
  0
LINE
  5
265F
330
23
100
AcDbEntity
  8
0
100
AcDbLine
 10
76.27255208374291
 20
37.07468558709874
 30
0.0
 11
76.27255208374291
 21
37.7435230685731
 31
0.0
1001
DIMEXPLODE
1070
     0
  0
LINE
  5
2660
330
23
100
AcDbEntity
  8
0
100
AcDbLine
 10
74.87255246521264
 20
44.97468568246614
 30
0.0
 11
74.87255246521264
 21
44.30584808178233
 31
0.0
1001
DIMEXPLODE
1070
     0
  0
LINE
  5
2661
330
23
100
AcDbEntity
  8
0
100
AcDbLine
 10
76.27255208374291
 20
44.97468568246614
 30
0.0
 11
76.27255208374291
 21
44.30584808178233
 31
0.0
1001
DIMEXPLODE
1070
     0
  0
LINE
  5
2662
330
23
100
AcDbEntity
  8
0
100
AcDbLine
 10
74.87255246521264
 20
44.97468568246614
 30
0.0
 11
76.27255208374291
 21
44.97468568246614
 31
0.0
1001
DIMEXPLODE
1070
     0
  0
CIRCLE
  5
2663
330
23
100
AcDbEntity
  8
0
100
AcDbCircle
 10
75.57255227447777
 20
41.02468557517771
 30
0.0
 40
3.355000317096724
  0
LINE
  5
2664
330
23
100
AcDbEntity
  8
AM_7
100
AcDbLine
 10
70.47255227447777
 20
41.02468557517771
 30
0.0
 11
80.67255227447777
 21
41.02468557517771
 31
0.0
1001
GENIUS_GENODEF_13
1002
{
1000
HIER
1070
     0
1002
}
1002
{
1000
MANEDIT
1070
     0
1002
}
1002
{
1000
NOSEL
1070
     0
1002
}
1002
{
1000
BEHIND
1070
     0
1002
}
1002
{
1000
OTHER
1070
     0
1002
}
1002
{
1000
REACTOR
1002
}
1001
GENIUS_GENOBJ-N-CEN_13
1002
{
1000
OWNER
1000
GEN
1002
}
1001
GENIUS_GENCEN_19
1002
{
1040
0.85
1002
}
  0
LINE
  5
2665
330
23
100
AcDbEntity
  8
AM_7
100
AcDbLine
 10
75.57255227447777
 20
47.09868552749745
 30
0.0
 11
75.57255227447777
 21
31.45068609970234
 31
0.0
1001
GENIUS_GENODEF_13
1002
{
1000
HIER
1070
     0
1002
}
1002
{
1000
MANEDIT
1070
     0
1002
}
1002
{
1000
NOSEL
1070
     0
1002
}
1002
{
1000
BEHIND
1070
     0
1002
}
1002
{
1000
OTHER
1070
     0
1002
}
1002
{
1000
REACTOR
1002
}
1001
GENIUS_GENOBJ-N-CEN_13
1002
{
1000
OWNER
1000
GEN
1002
}
1001
GENIUS_GENCEN_19
1002
{
1040
1.303999952316259
1002
}
  0
CIRCLE
  5
2666
330
23
100
AcDbEntity
  8
0
100
AcDbCircle
 10
75.57255227447777
 20
41.02468557517771
 30
0.0
 40
2.624998152256026
  0
CIRCLE
  5
2667
330
23
100
AcDbEntity
  8
0
100
AcDbCircle
 10
75.57255227447777
 20
41.02468557517771
 30
0.0
 40
2.332037198966716
  0
ARC
  5
2668
330
23
100
AcDbEntity
  8
0
100
AcDbCircle
 10
75.57255227447774
 20
40.92468557517771
 30
0.0
 40
0.634999774396448
100
AcDbArc
 50
9.060678077398339
 51
170.9393219226017
  0
ARC
  5
2669
330
23
100
AcDbEntity
  8
0
100
AcDbCircle
 10
75.57255227447774
 20
40.92468557517771
 30
0.0
 40
0.5749994501467537
100
AcDbArc
 50
10.01541984441665
 51
169.9845801555833
  0
ARC
  5
266A
330
23
100
AcDbEntity
  8
0
100
AcDbCircle
 10
75.57255227447774
 20
40.92468557517771
 30
0.0
 40
0.4749994501467541
100
AcDbArc
 50
12.15321175224997
 51
167.84678824775
  0
LINE
  5
266B
330
23
100
AcDbEntity
  8
0
100
AcDbLine
 10
74.94547595258101
 20
41.02468557517771
 30
0.0
 11
75.10819844641156
 21
41.02468557517771
 31
0.0
  0
LINE
  5
266C
330
23
100
AcDbEntity
  8
0
100
AcDbLine
 10
76.03690610254393
 20
41.02468557517771
 30
0.0
 11
76.19962859637448
 21
41.02468557517771
 31
0.0
  0
ARC
  5
266D
330
23
100
AcDbEntity
  8
0
100
AcDbCircle
 10
75.57255227447774
 20
41.12468557517779
 30
0.0
 40
0.634999774396448
100
AcDbArc
 50
189.060678077409
 51
350.9393219226124
  0
ARC
  5
266E
330
23
100
AcDbEntity
  8
0
100
AcDbCircle
 10
75.57255227447774
 20
41.12468557517779
 30
0.0
 40
0.5749994501467537
100
AcDbArc
 50
190.0154198444265
 51
349.9845801555932
  0
ARC
  5
266F
330
23
100
AcDbEntity
  8
0
100
AcDbCircle
 10
75.57255227447774
 20
41.12468557517779
 30
0.0
 40
0.4749994501467541
100
AcDbArc
 50
192.1532117522607
 51
347.8467882477609
  0
LINE
  5
2670
330
23
100
AcDbEntity
  8
0
100
AcDbLine
 10
74.94547595258101
 20
41.02468557517768
 30
0.0
 11
75.10819844641156
 21
41.02468557517771
 31
0.0
  0
LINE
  5
2671
330
23
100
AcDbEntity
  8
0
100
AcDbLine
 10
76.03690610254393
 20
41.02468557517788
 30
0.0
 11
76.19962859637448
 21
41.02468557517791
 31
0.0
  0
CIRCLE
  5
2672
330
23
100
AcDbEntity
  8
0
100
AcDbCircle
 10
75.57255227447777
 20
41.02468557517771
 30
0.0
 40
0.6650000000000063
  0
LINE
  5
2674
330
23
100
AcDbEntity
  8
0
100
AcDbLine
 10
74.93755227447775
 20
36.8946855751812
 30
0.0
 11
74.93755227447775
 21
34.05468605201855
 31
0.0
  0
LINE
  5
2675
330
23
100
AcDbEntity
  8
0
100
AcDbLine
 10
76.20755227447773
 20
34.05468605201861
 30
0.0
 11
76.20755227447773
 21
36.8946855751812
 31
0.0
  0
LINE
  5
2676
330
23
100
AcDbEntity
  8
0
 48
0.5
100
AcDbLine
 10
76.20755227447777
 20
34.05468605201861
 30
0.0
 11
74.93755227447784
 21
34.05468605201856
 31
0.0
1001
DIMEXPLODE
1070
     0
  0
LINE
  5
2677
330
23
100
AcDbEntity
  8
0
100
AcDbLine
 10
75.23755227447779
 20
33.7546860520186
 30
0.0
 11
75.90755227447775
 21
33.7546860520186
 31
0.0
  0
LINE
  5
2678
330
23
100
AcDbEntity
  8
0
 48
0.5
100
AcDbLine
 10
76.20755227447777
 20
34.05468605201861
 30
0.0
 11
75.90755227447775
 21
33.7546860520186
 31
0.0
1001
DIMEXPLODE
1070
     0
1001
GENIUS_GENFIL_13
1070
     1
1040
0.2
1040
0.8333333333333332
1040
0.3
1040
45.0
1002
{
1002
}
1001
GENIUS_GENODEF_13
1002
{
1000
HIER
1070
     0
1002
}
1002
{
1000
MANEDIT
1070
     0
1002
}
1002
{
1000
NOSEL
1070
     0
1002
}
1002
{
1000
BEHIND
1070
     0
1002
}
1002
{
1000
OTHER
1070
     0
1002
}
1002
{
1000
REACTOR
1002
}
1001
GENIUS_GENOBJ-N-CHA_13
1002
{
1000
OWNER
1000
GEN
1002
}
  0
LINE
  5
2679
330
23
100
AcDbEntity
  8
0
 48
0.5
100
AcDbLine
 10
74.93755227447778
 20
34.05468605201861
 30
0.0
 11
75.23755227447779
 21
33.7546860520186
 31
0.0
1001
DIMEXPLODE
1070
     0
1001
GENIUS_GENFIL_13
1070
     1
1040
0.2
1040
0.8333333333333332
1040
0.3
1040
45.0
1002
{
1002
}
1001
GENIUS_GENODEF_13
1002
{
1000
HIER
1070
     0
1002
}
1002
{
1000
MANEDIT
1070
     0
1002
}
1002
{
1000
NOSEL
1070
     0
1002
}
1002
{
1000
BEHIND
1070
     0
1002
}
1002
{
1000
OTHER
1070
     0
1002
}
1002
{
1000
REACTOR
1002
}
1001
GENIUS_GENOBJ-N-CHA_13
1002
{
1000
OWNER
1000
GEN
1002
}
  0
LINE
  5
267A
330
23
100
AcDbEntity
  8
0
100
AcDbLine
 10
45.83424890019558
 20
12.39509107874155
 30
0.0
 11
45.83424890019557
 21
15.75009127662889
 31
0.0
  0
LINE
  5
267B
330
23
100
AcDbEntity
  8
0
100
AcDbLine
 10
57.95424890019559
 20
12.39509107874153
 30
0.0
 11
57.95424890019559
 21
15.75009127662892
 31
0.0
1001
DIMEXPLODE
1070
     0
  0
LINE
  5
267C
330
23
100
AcDbEntity
  8
0
100
AcDbLine
 10
57.345300985614
 20
12.59509088800661
 30
0.0
 11
55.06319665410178
 21
12.59509088800661
 31
0.0
1001
DIMEXPLODE
1070
     0
  0
LINE
  5
267D
330
23
100
AcDbEntity
  8
0
100
AcDbLine
 10
54.70424926293634
 20
12.39509107874152
 30
0.0
 11
45.83424890019557
 21
12.39509107874154
 31
0.0
1001
DIMEXPLODE
1070
     0
  0
LINE
  5
267E
330
23
100
AcDbEntity
  8
0
100
AcDbLine
 10
57.70424890019558
 20
12.39509107874153
 30
0.0
 11
57.95424890019559
 21
12.39509107874153
 31
0.0
1001
DIMEXPLODE
1070
     0
  0
LINE
  5
267F
330
23
100
AcDbEntity
  8
0
100
AcDbLine
 10
57.20424890019558
 20
12.59509088800661
 30
0.0
 11
57.20424890019558
 21
14.63205728787935
 31
0.0
1001
DIMEXPLODE
1070
     0
  0
LINE
  5
2680
330
23
100
AcDbEntity
  8
0
100
AcDbLine
 10
55.20424890019558
 20
12.59509088800661
 30
0.0
 11
55.20424890019558
 21
14.63205728787935
 31
0.0
1001
DIMEXPLODE
1070
     0
  0
ARC
  5
2681
330
23
100
AcDbEntity
  8
0
100
AcDbCircle
 10
56.20424890019559
 20
10.12509109781501
 30
0.0
 40
2.720826864242599
100
AcDbArc
 50
56.54355028922122
 51
65.20473559079542
1001
DIMEXPLODE
1070
     0
  0
ARC
  5
2682
330
23
100
AcDbEntity
  8
0
100
AcDbCircle
 10
56.20424890019559
 20
10.12509109781501
 30
0.0
 40
2.720826864242599
100
AcDbArc
 50
114.7952625879728
 51
123.4564478895444
1001
DIMEXPLODE
1070
     0
  0
LINE
  5
2683
330
23
100
AcDbEntity
  8
0
100
AcDbLine
 10
46.95424890019558
 20
15.75009127662889
 30
0.0
 11
46.95424890019561
 21
12.39509107874154
 31
0.0
1001
DIMEXPLODE
1070
     0
  0
LINE
  5
2684
330
23
100
AcDbEntity
  8
0
100
AcDbLine
 10
45.83424890018747
 20
18.42509127662904
 30
0.0
 11
45.63424890018739
 21
18.42509127662904
 31
0.0
  0
LINE
  5
2685
330
23
100
AcDbEntity
  8
0
100
AcDbLine
 10
45.83424890019558
 20
19.10509147452203
 30
0.0
 11
45.83424890019557
 21
15.75009127663465
 31
0.0
  0
LINE
  5
2686
330
23
100
AcDbEntity
  8
0
100
AcDbLine
 10
57.95424890019559
 20
19.10509147452201
 30
0.0
 11
57.95424890019559
 21
15.75009127663462
 31
0.0
1001
DIMEXPLODE
1070
     0
  0
LINE
  5
2687
330
23
100
AcDbEntity
  8
0
100
AcDbLine
 10
54.70424926293635
 20
19.10509147452201
 30
0.0
 11
45.83424890019557
 21
19.10509147452202
 31
0.0
1001
DIMEXPLODE
1070
     0
  0
LINE
  5
2688
330
23
100
AcDbEntity
  8
0
100
AcDbLine
 10
57.70424890019558
 20
19.10509147452201
 30
0.0
 11
57.95424890019559
 21
19.10509147452201
 31
0.0
1001
DIMEXPLODE
1070
     0
  0
LINE
  5
2689
330
23
100
AcDbEntity
  8
0
100
AcDbLine
 10
55.06319681477718
 20
18.90509166525693
 30
0.0
 11
57.34530114628928
 21
18.90509166525693
 31
0.0
1001
DIMEXPLODE
1070
     0
  0
LINE
  5
268A
330
23
100
AcDbEntity
  8
0
100
AcDbLine
 10
57.20424890019558
 20
18.90509166525693
 30
0.0
 11
57.20424890019558
 21
16.86812526537914
 31
0.0
1001
DIMEXPLODE
1070
     0
  0
LINE
  5
268B
330
23
100
AcDbEntity
  8
0
100
AcDbLine
 10
55.20424890019558
 20
18.90509166525693
 30
0.0
 11
55.20424890019558
 21
16.86812526537914
 31
0.0
1001
DIMEXPLODE
1070
     0
  0
ARC
  5
268C
330
23
100
AcDbEntity
  8
0
100
AcDbCircle
 10
56.20424890019559
 20
21.37509145544853
 30
0.0
 40
2.720826864242599
100
AcDbArc
 50
294.7952644092045
 51
303.4564497107788
1001
DIMEXPLODE
1070
     0
  0
ARC
  5
268D
330
23
100
AcDbEntity
  8
0
100
AcDbCircle
 10
56.20424890019559
 20
21.37509145544853
 30
0.0
 40
2.720826864242599
100
AcDbArc
 50
236.5435521104553
 51
245.2047374120271
1001
DIMEXPLODE
1070
     0
  0
LINE
  5
268E
330
23
100
AcDbEntity
  8
0
100
AcDbLine
 10
46.95424890019558
 20
15.75009127663465
 30
0.0
 11
46.95424890019561
 21
19.10509147452202
 31
0.0
1001
DIMEXPLODE
1070
     0
  0
ARC
  5
2691
330
23
100
AcDbEntity
  8
0
100
AcDbCircle
 10
56.20424890019559
 20
15.75009127662925
 30
0.0
 40
1.5
100
AcDbArc
 50
179.9999999999784
 51
228.1896851042212
  0
ARC
  5
2692
330
23
100
AcDbEntity
  8
0
100
AcDbCircle
 10
56.20424890019559
 20
15.75009127662925
 30
0.0
 40
1.5
100
AcDbArc
 50
311.8103148957788
 51
359.9999999999784
  0
ARC
  5
2693
330
23
100
AcDbEntity
  8
0
100
AcDbCircle
 10
56.20424890019559
 20
15.75009127662925
 30
0.0
 40
1.5
100
AcDbArc
 50
359.9999999999784
 51
48.18968510422156
  0
ARC
  5
2694
330
23
100
AcDbEntity
  8
0
100
AcDbCircle
 10
56.20424890019559
 20
15.75009127662925
 30
0.0
 40
1.5
100
AcDbArc
 50
131.8103148957784
 51
179.9999999999784
  0
CIRCLE
  5
2695
330
23
100
AcDbEntity
  8
0
100
AcDbCircle
 10
56.20424890019559
 20
15.75009127662925
 30
0.0
 40
0.6999998092650799
  0
ARC
  5
2696
330
23
100
AcDbEntity
  8
0
100
AcDbCircle
 10
75.57255227447777
 20
41.02468557517771
 30
0.0
 40
4.0
100
AcDbArc
 50
33.12294020774379
 51
146.8770597922562
  0
ARC
  5
2697
330
23
100
AcDbEntity
  8
0
100
AcDbCircle
 10
75.57255227447777
 20
41.02468557517771
 30
0.0
 40
4.0
100
AcDbArc
 50
213.1229402077441
 51
326.8770597922558
  0
LINE
  5
2698
330
23
100
AcDbEntity
  8
0
100
AcDbLine
 10
78.92255227447776
 20
43.21043487461714
 30
0.0
 11
78.92255227447776
 21
38.83893627573826
 31
0.0
  0
LINE
  5
2699
330
23
100
AcDbEntity
  8
0
100
AcDbLine
 10
72.22255227447778
 20
43.21043487461714
 30
0.0
 11
72.22255227447778
 21
38.83893627573826
 31
0.0
  0
LINE
  5
269A
330
23
100
AcDbEntity
  8
0
370
    15
100
AcDbLine
 10
45.83424890019557
 20
43.21043487461714
 30
0.0
 11
46.95424890019558
 21
38.83893627573826
 31
0.0
  0
LINE
  5
269B
330
23
100
AcDbEntity
  8
0
370
    15
100
AcDbLine
 10
46.95424890019558
 20
43.21043487461714
 30
0.0
 11
45.83424890019557
 21
38.83893627573826
 31
0.0
  0
LINE
  5
269C
330
23
100
AcDbEntity
  8
0
100
AcDbLine
 10
45.83424890019557
 20
43.21043487461717
 30
0.0
 11
46.95424890019558
 21
43.21043487461714
 31
0.0
  0
LINE
  5
269D
330
23
100
AcDbEntity
  8
0
100
AcDbLine
 10
45.83424890019557
 20
38.83893627573826
 30
0.0
 11
46.95424890019558
 21
38.83893627573826
 31
0.0
  0
CIRCLE
  5
269E
330
23
100
AcDbEntity
  8
0
100
AcDbCircle
 10
38.24424890019148
 20
15.75009127663566
 30
0.0
 40
2.149999999995941
  0
LINE
  5
269F
330
23
100
AcDbEntity
  8
0
100
AcDbLine
 10
35.19424890019554
 20
18.80009127663561
 30
0.0
 11
36.21424890019552
 21
18.80009127663561
 31
0.0
  0
LINE
  5
26A0
330
23
100
AcDbEntity
  8
0
100
AcDbLine
 10
40.27424890019552
 20
18.80009127663561
 30
0.0
 11
41.29424890019549
 21
18.80009127663561
 31
0.0
  0
LINE
  5
26A1
330
23
100
AcDbEntity
  8
0
100
AcDbLine
 10
34.63424890019553
 20
12.40009127663608
 30
0.0
 11
45.63424890019304
 21
12.4000912766279
 31
0.0
  0
LINE
  5
26A2
330
23
100
AcDbEntity
  8
0
100
AcDbLine
 10
35.19424890019554
 20
18.80009127663561
 30
0.0
 11
35.19424890019554
 21
17.78009127663561
 31
0.0
  0
LINE
  5
26A3
330
23
100
AcDbEntity
  8
0
100
AcDbLine
 10
35.19424890019554
 20
12.70009127663565
 30
0.0
 11
35.19424890019554
 21
13.72009127663562
 31
0.0
  0
LINE
  5
26A4
330
23
100
AcDbEntity
  8
0
100
AcDbLine
 10
34.63424890019554
 20
45.7946855751777
 30
0.0
 11
34.63424890019554
 21
36.25468557517773
 31
0.0
  0
LINE
  5
26A5
330
23
100
AcDbEntity
  8
0
100
AcDbLine
 10
35.19424890019553
 20
36.25468557517773
 30
0.0
 11
34.63424890019554
 21
36.25468557517773
 31
0.0
  0
LINE
  5
26A6
330
23
100
AcDbEntity
  8
0
100
AcDbLine
 10
78.92255227447776
 20
36.8946855751812
 30
0.0
 11
78.92255227447776
 21
38.83893627573826
 31
0.0
  0
LINE
  5
26A7
330
23
100
AcDbEntity
  8
0
100
AcDbLine
 10
16.17447291403798
 20
36.25468557517705
 30
0.0
 11
16.17447291403798
 21
33.75468557517715
 31
0.0
  0
LINE
  5
26A8
330
23
100
AcDbEntity
  8
0
100
AcDbLine
 10
16.17447291403798
 20
33.75468557517715
 30
0.0
 11
15.15447291403797
 21
33.75468557517715
 31
0.0
  0
LINE
  5
26A9
330
23
100
AcDbEntity
  8
0
100
AcDbLine
 10
15.15447291403797
 20
33.75468557517715
 30
0.0
 11
15.15447291403797
 21
36.89468557518122
 31
0.0
  0
LINE
  5
26AA
330
23
100
AcDbEntity
  8
0
100
AcDbLine
 10
15.15447291403797
 20
36.89468557518122
 30
0.0
 11
13.12447291403797
 21
36.89468557518123
 31
0.0
  0
LINE
  5
26AB
330
23
100
AcDbEntity
  8
0
100
AcDbLine
 10
13.12447291403797
 20
36.89468557518123
 30
0.0
 11
11.09447291403797
 21
36.89468557518122
 31
0.0
  0
LINE
  5
26AC
330
23
100
AcDbEntity
  8
0
100
AcDbLine
 10
11.09447291403797
 20
36.89468557518122
 30
0.0
 11
11.09447291403797
 21
33.75468557517715
 31
0.0
  0
LINE
  5
26AD
330
23
100
AcDbEntity
  8
0
100
AcDbLine
 10
11.09447291403797
 20
33.75468557517715
 30
0.0
 11
10.07447291403796
 21
33.75468557517715
 31
0.0
  0
LINE
  5
26AE
330
23
100
AcDbEntity
  8
0
100
AcDbLine
 10
10.07447291403796
 20
33.75468557517715
 30
0.0
 11
10.07447291403796
 21
36.25468557517705
 31
0.0
  0
LINE
  5
26AF
330
23
100
AcDbEntity
  8
AM_7
100
AcDbLine
 10
13.12447291403797
 20
32.75468557517739
 30
0.0
 11
13.12447291403797
 21
47.08909371567215
 31
0.0
1001
GENIUS_GENOREF_13
1005
0
  0
LINE
  5
26B0
330
23
100
AcDbEntity
  8
AM_7
100
AcDbLine
 10
9.449512440248767
 20
41.02468557517771
 30
0.0
 11
16.64931151940594
 21
41.02468557517771
 31
0.0
1001
GENIUS_GENODEF_13
1002
{
1000
HIER
1070
     0
1002
}
1002
{
1000
MANEDIT
1070
     0
1002
}
1002
{
1000
NOSEL
1070
     0
1002
}
1002
{
1000
BEHIND
1070
     0
1002
}
1002
{
1000
OTHER
1070
     0
1002
}
1002
{
1000
REACTOR
1002
}
1001
GENIUS_GENOBJ-N-CEN_13
1002
{
1000
OWNER
1000
GEN
1002
}
1001
GENIUS_GENCEN_19
1002
{
1040
0.625510735303874
1002
}
  0
LINE
  5
26B1
330
23
100
AcDbEntity
  8
0
100
AcDbLine
 10
13.12447291403799
 20
33.75468557517758
 30
0.0
 11
13.45947291403799
 21
33.75468557517758
 31
0.0
  0
LINE
  5
26B2
330
23
100
AcDbEntity
  8
0
100
AcDbLine
 10
13.75947291403799
 20
36.89468557517705
 30
0.0
 11
13.75947291403799
 21
34.05468557517759
 31
0.0
  0
LINE
  5
26B3
330
23
100
AcDbEntity
  8
0
100
AcDbLine
 10
13.45947291403799
 20
33.75468557517758
 30
0.0
 11
13.75947291403799
 21
34.05468557517759
 31
0.0
1001
GENIUS_GENFIL_13
1070
     0
1040
0.3
1040
0.3
1040
0.3000000000000007
1040
44.99999999999983
1000
~T
1001
GENIUS_GENOREF_13
1005
26CC
  0
LINE
  5
26B4
330
23
100
AcDbEntity
  8
0
100
AcDbLine
 10
13.12447291403799
 20
34.05468557517759
 30
0.0
 11
13.75947291403798
 21
34.05468557517759
 31
0.0
  0
LINE
  5
26B5
330
23
100
AcDbEntity
  8
0
100
AcDbLine
 10
13.12447291403799
 20
33.75468557517758
 30
0.0
 11
12.78947291403798
 21
33.75468557517758
 31
0.0
  0
LINE
  5
26B6
330
23
100
AcDbEntity
  8
0
100
AcDbLine
 10
12.48947291403795
 20
36.89468557517704
 30
0.0
 11
12.48947291403798
 21
34.05468557517757
 31
0.0
  0
LINE
  5
26B7
330
23
100
AcDbEntity
  8
0
100
AcDbLine
 10
12.78947291403798
 20
33.75468557517758
 30
0.0
 11
12.48947291403798
 21
34.05468557517757
 31
0.0
1001
GENIUS_GENFIL_13
1070
     0
1040
0.3
1040
0.3
1040
0.3000000000000007
1040
44.99999999999983
1000
~T
1001
GENIUS_GENOREF_13
1005
26CB
  0
LINE
  5
26B8
330
23
100
AcDbEntity
  8
0
100
AcDbLine
 10
13.12447291403798
 20
34.05468557517759
 30
0.0
 11
12.48947291403798
 21
34.05468557517757
 31
0.0
  0
LINE
  5
26B9
330
23
100
AcDbEntity
  8
0
100
AcDbLine
 10
9.774472914037971
 20
45.79468557518119
 30
0.0
 11
16.47447291403797
 21
45.79468557518119
 31
0.0
  0
LINE
  5
26BA
330
23
100
AcDbEntity
  8
0
100
AcDbLine
 10
15.15447291403797
 20
36.25468557517704
 30
0.0
 11
16.47447291403797
 21
36.25468557517704
 31
0.0
  0
LINE
  5
26BB
330
23
100
AcDbEntity
  8
0
100
AcDbLine
 10
16.47447291403797
 20
36.25468557517704
 30
0.0
 11
16.47447291403797
 21
45.79468557518118
 31
0.0
  0
LINE
  5
26BC
330
23
100
AcDbEntity
  8
0
100
AcDbLine
 10
11.09447291403797
 20
36.25468557517704
 30
0.0
 11
9.774472914037968
 21
36.25468557517704
 31
0.0
  0
LINE
  5
26BD
330
23
100
AcDbEntity
  8
0
100
AcDbLine
 10
9.774472914037968
 20
36.25468557517704
 30
0.0
 11
9.774472914037971
 21
45.79468557518119
 31
0.0
  0
LINE
  5
26BE
330
23
100
AcDbEntity
  8
0
100
AcDbLine
 10
72.22255227447778
 20
45.79468557518111
 30
0.0
 11
78.92255227447776
 21
45.79468557518109
 31
0.0
  0
LINE
  5
26BF
330
23
100
AcDbEntity
  8
0
100
AcDbLine
 10
78.62255227447779
 20
36.25468557517697
 30
0.0
 11
78.62255227447779
 21
33.75468557517706
 31
0.0
  0
LINE
  5
26C0
330
23
100
AcDbEntity
  8
0
100
AcDbLine
 10
78.62255227447779
 20
33.75468557517706
 30
0.0
 11
77.60255227447777
 21
33.75468557517706
 31
0.0
  0
LINE
  5
26C1
330
23
100
AcDbEntity
  8
0
100
AcDbLine
 10
77.60255227447777
 20
33.75468557517706
 30
0.0
 11
77.60255227447777
 21
36.89468557518112
 31
0.0
  0
LINE
  5
26C2
330
23
100
AcDbEntity
  8
0
100
AcDbLine
 10
77.60255227447777
 20
36.89468557518112
 30
0.0
 11
75.57255227447777
 21
36.89468557518113
 31
0.0
  0
LINE
  5
26C3
330
23
100
AcDbEntity
  8
0
100
AcDbLine
 10
75.57255227447777
 20
36.89468557518114
 30
0.0
 11
73.54255227447777
 21
36.89468557518112
 31
0.0
  0
LINE
  5
26C4
330
23
100
AcDbEntity
  8
0
100
AcDbLine
 10
73.54255227447777
 20
36.89468557518112
 30
0.0
 11
73.54255227447777
 21
33.75468557517706
 31
0.0
  0
LINE
  5
26C5
330
23
100
AcDbEntity
  8
0
100
AcDbLine
 10
73.54255227447777
 20
33.75468557517706
 30
0.0
 11
72.52255227447776
 21
33.75468557517706
 31
0.0
  0
LINE
  5
26C6
330
23
100
AcDbEntity
  8
0
100
AcDbLine
 10
72.52255227447776
 20
33.75468557517706
 30
0.0
 11
72.52255227447776
 21
36.25468557517697
 31
0.0
  0
LINE
  5
26C7
330
23
100
AcDbEntity
  8
0
100
AcDbLine
 10
77.60255227447777
 20
36.25468557517697
 30
0.0
 11
78.92255227447776
 21
36.25468557517697
 31
0.0
  0
LINE
  5
26C8
330
23
100
AcDbEntity
  8
0
100
AcDbLine
 10
78.92255227447776
 20
36.25468557517697
 30
0.0
 11
78.92255227447776
 21
45.79468557518111
 31
0.0
  0
LINE
  5
26C9
330
23
100
AcDbEntity
  8
0
100
AcDbLine
 10
73.54255227447777
 20
36.25468557517697
 30
0.0
 11
72.22255227447778
 21
36.25468557517697
 31
0.0
  0
LINE
  5
26CA
330
23
100
AcDbEntity
  8
0
100
AcDbLine
 10
72.22255227447778
 20
36.25468557517697
 30
0.0
 11
72.22255227447778
 21
45.79468557518111
 31
0.0
  0
POINT
  5
26CB
330
23
100
AcDbEntity
  8
0
 60
     1
100
AcDbPoint
 10
-10.48585453208132
 20
31.55913795565508
 30
0.0
 50
180.0000000000006
1001
GENIUS_GENOBJ-N-CHA_13
1002
{
1000
OWNER
1000
GEN
1002
}
1001
GENIUS_GENOENT_13
1002
{
1000
MYREF
1005
26CB
1002
}
1002
{
1000
GRP
1005
0
1002
}
1001
GENIUS_GENOLIS_13
1002
{
1000
ENT
1005
0
1005
26B7
1002
}
1001
GENIUS_GENODEF_13
1002
{
1000
HIER
1070
     1
1002
}
1002
{
1000
MANEDIT
1070
     1
1002
}
1002
{
1000
NOSEL
1070
     0
1002
}
1002
{
1000
BEHIND
1070
     0
1002
}
1002
{
1000
OTHER
1070
     0
1002
}
1002
{
1000
REACTOR
1002
}
  0
POINT
  5
26CC
330
23
100
AcDbEntity
  8
0
 60
     1
100
AcDbPoint
 10
-33.1582036124741
 20
31.55913795565496
 30
0.0
1001
GENIUS_GENOBJ-N-CHA_13
1002
{
1000
OWNER
1000
GEN
1002
}
1001
GENIUS_GENOENT_13
1002
{
1000
MYREF
1005
26CC
1002
}
1002
{
1000
GRP
1005
0
1002
}
1001
GENIUS_GENOLIS_13
1002
{
1000
ENT
1005
0
1005
26B3
1002
}
1001
GENIUS_GENODEF_13
1002
{
1000
HIER
1070
     1
1002
}
1002
{
1000
MANEDIT
1070
     1
1002
}
1002
{
1000
NOSEL
1070
     0
1002
}
1002
{
1000
BEHIND
1070
     0
1002
}
1002
{
1000
OTHER
1070
     0
1002
}
1002
{
1000
REACTOR
1002
}
  0
LINE
  5
26CD
330
23
100
AcDbEntity
  8
0
100
AcDbLine
 10
57.95424890019557
 20
44.37968577306515
 30
0.0
 11
57.95424890019559
 21
41.02468557517775
 31
0.0
1001
DIMEXPLODE
1070
     0
  0
LINE
  5
26CE
330
23
100
AcDbEntity
  8
0
100
AcDbLine
 10
55.50424909093037
 20
44.97468556325675
 30
0.0
 11
55.50424909093038
 21
44.17968596380005
 31
0.0
1001
DIMEXPLODE
1070
     0
  0
LINE
  5
26CF
330
23
100
AcDbEntity
  8
0
100
AcDbLine
 10
55.50424909093038
 20
44.17968596380005
 30
0.0
 11
55.06319665410177
 21
44.17968596380005
 31
0.0
1001
DIMEXPLODE
1070
     0
  0
LINE
  5
26D0
330
23
100
AcDbEntity
  8
0
100
AcDbLine
 10
54.70424890019557
 20
44.37968577306513
 30
0.0
 11
46.95424890019555
 21
44.37968577306508
 31
0.0
1001
DIMEXPLODE
1070
     0
  0
LINE
  5
26D1
330
23
100
AcDbEntity
  8
0
100
AcDbLine
 10
55.50424909093037
 20
44.97468556325675
 30
0.0
 11
56.90424870946064
 21
44.97468556325676
 31
0.0
1001
DIMEXPLODE
1070
     0
  0
LINE
  5
26D2
330
23
100
AcDbEntity
  8
0
100
AcDbLine
 10
55.50424909093038
 20
44.17968596380005
 30
0.0
 11
56.90424870946065
 21
44.17968596380005
 31
0.0
1001
DIMEXPLODE
1070
     0
  0
LINE
  5
26D3
330
23
100
AcDbEntity
  8
0
100
AcDbLine
 10
57.70424890019556
 20
44.37968577306515
 30
0.0
 11
57.95424890019557
 21
44.37968577306515
 31
0.0
1001
DIMEXPLODE
1070
     0
  0
LINE
  5
26D4
330
23
100
AcDbEntity
  8
0
100
AcDbLine
 10
56.90424870946065
 20
44.17968596380005
 30
0.0
 11
57.34530114628927
 21
44.17968596380006
 31
0.0
1001
DIMEXPLODE
1070
     0
  0
LINE
  5
26D5
330
23
100
AcDbEntity
  8
0
100
AcDbLine
 10
56.90424870946064
 20
44.97468556325676
 30
0.0
 11
56.90424870946065
 21
44.17968596380005
 31
0.0
1001
DIMEXPLODE
1070
     0
  0
LINE
  5
26D6
330
23
100
AcDbEntity
  8
0
100
AcDbLine
 10
57.20424890019558
 20
44.17968596380006
 30
0.0
 11
57.20424890019558
 21
41.02468557517775
 31
0.0
1001
DIMEXPLODE
1070
     0
  0
LINE
  5
26D7
330
23
100
AcDbEntity
  8
0
100
AcDbLine
 10
55.20424890019557
 20
44.17968596380005
 30
0.0
 11
55.20424890019558
 21
41.02468557517774
 31
0.0
1001
DIMEXPLODE
1070
     0
  0
ARC
  5
26D8
330
23
100
AcDbEntity
  8
0
100
AcDbCircle
 10
56.20424890019556
 20
46.64968575399165
 30
0.0
 40
2.720826864242599
100
AcDbArc
 50
294.7952644092048
 51
303.4564497107796
1001
DIMEXPLODE
1070
     0
  0
ARC
  5
26D9
330
23
100
AcDbEntity
  8
0
100
AcDbCircle
 10
56.20424890019556
 20
46.64968575399165
 30
0.0
 40
2.720826864242599
100
AcDbArc
 50
236.5435521104557
 51
245.2047374120273
1001
DIMEXPLODE
1070
     0
  0
ENDSEC
  0
SECTION
  2
OBJECTS
  0
DICTIONARY
  5
C
330
0
100
AcDbDictionary
281
     1
  3
ACAD_CIP_PREVIOUS_PRODUCT_INFO
350
2193
  3
ACAD_COLOR
350
1C
  3
ACAD_DETAILVIEWSTYLE
350
2189
  3
ACAD_FIELDLIST
350
21B1
  3
ACAD_GROUP
350
D
  3
ACAD_LAYOUT
350
1A
  3
ACAD_MATERIAL
350
1B
  3
ACAD_MLEADERSTYLE
350
2185
  3
ACAD_MLINESTYLE
350
17
  3
ACAD_PLOTSETTINGS
350
19
  3
ACAD_PLOTSTYLENAME
350
E
  3
ACAD_SCALELIST
350
2173
  3
ACAD_SECTIONVIEWSTYLE
350
2187
  3
ACAD_TABLESTYLE
350
1D
  3
ACAD_VISUALSTYLE
350
9BF
  3
ACDB_RECOMPOSE_DATA
350
26E1
  3
AcDbVariableDictionary
350
17C
  3
AcmDictionary
350
8B
  3
AMG
350
2F
  3
AMGSNAPSETTINGS
350
174
  0
DICTIONARY
  5
60C
330
2
100
AcDbDictionary
280
     1
281
     1
  3
ACAD_LAYERFILTERS
360
DD1
  3
ACAD_LAYERSTATES
360
20D0
  3
ACLYDICTIONARY
360
DD0
  3
AMLAYER_GROUPCOLORS
360
60D
  0
DICTIONARY
  5
23EF
330
10
100
AcDbDictionary
280
     1
281
     1
  3
ADSK_XREC_LAYER_RECONCILED
360
23F0
  0
DICTIONARY
  5
21CE
330
21CD
100
AcDbDictionary
280
     1
281
     1
  3
ADSK_XREC_LAYER_RECONCILED
360
23F1
  0
DICTIONARY
  5
21D0
330
21CF
100
AcDbDictionary
280
     1
281
     1
  3
ADSK_XREC_LAYER_RECONCILED
360
23F2
  0
DICTIONARY
  5
21D2
330
21D1
100
AcDbDictionary
280
     1
281
     1
  3
ADSK_XREC_LAYER_RECONCILED
360
23F3
  0
DICTIONARY
  5
249D
330
23
100
AcDbDictionary
280
     1
281
     1
  3
ACAD_SORTENTS
360
249E
  0
DICTIONARY
  5
25B7
330
24D0
100
AcDbDictionary
280
     1
281
     1
  3
ACAD_SORTENTS
360
25B8
  0
XRECORD
  5
2193
102
{ACAD_REACTORS
330
C
102
}
330
C
100
AcDbXrecord
280
     1
300
AMECH_PP
300
2016
300
86478AMECH_PP_2016_0F
  0
DICTIONARY
  5
1C
102
{ACAD_REACTORS
330
C
102
}
330
C
100
AcDbDictionary
281
     1
  0
DICTIONARY
  5
2189
102
{ACAD_REACTORS
330
C
102
}
330
C
100
AcDbDictionary
281
     1
  3
ASME Y14.35 - 1987(1)
350
24B9
  3
Imperial24
350
21EF
  3
ISO 128-34_2001(1)
350
24C0
  3
JIS Z 8316 _ 1999(1)
350
24C9
  3
Metric50
350
218A
  0
FIELDLIST
  5
21B1
102
{ACAD_REACTORS
330
C
102
}
330
C
100
AcDbIdSet
 90
       31
330
24A9
330
24AA
330
24AB
330
24AC
330
24B0
330
24B1
330
24B2
330
24B6
330
24B7
330
24B8
330
24BC
330
24BD
330
24BE
330
24BF
330
24C5
330
24C6
330
24C7
330
24C8
330
24CC
330
24CD
330
24CE
330
24CF
330
2491
330
2492
330
2493
330
21E8
330
21EC
330
21ED
330
21EE
330
21E6
330
21E7
100
AcDbFieldList
  0
DICTIONARY
  5
D
102
{ACAD_REACTORS
330
C
102
}
330
C
100
AcDbDictionary
281
     1
  0
DICTIONARY
  5
1A
102
{ACAD_REACTORS
330
C
102
}
330
C
100
AcDbDictionary
281
     1
  3
Model
350
26
  3
レイアウト1
350
22
  3
レイアウト2
350
2A
  0
DICTIONARY
  5
1B
102
{ACAD_REACTORS
330
C
102
}
330
C
100
AcDbDictionary
281
     1
  3
ByBlock
350
9BD
  3
ByLayer
350
9BC
  3
Global
350
9BE
  0
DICTIONARY
  5
2185
102
{ACAD_REACTORS
330
C
102
}
330
C
100
AcDbDictionary
281
     1
  3
Standard
350
2186
  0
DICTIONARY
  5
17
102
{ACAD_REACTORS
330
C
102
}
330
C
100
AcDbDictionary
281
     1
  3
Standard
350
18
  0
DICTIONARY
  5
19
102
{ACAD_REACTORS
330
C
102
}
330
C
100
AcDbDictionary
281
     1
  0
ACDBDICTIONARYWDFLT
  5
E
102
{ACAD_REACTORS
330
C
102
}
330
C
100
AcDbDictionary
281
     1
  3
Normal
350
F
100
AcDbDictionaryWithDefault
340
F
  0
DICTIONARY
  5
2173
102
{ACAD_REACTORS
330
C
102
}
330
C
100
AcDbDictionary
281
     1
  3
*A1
350
21E0
  3
A0
350
2174
  3
A1
350
2175
  3
A2
350
2176
  3
A3
350
2177
  3
A4
350
2178
  3
A5
350
2179
  3
A6
350
217A
  3
A7
350
217B
  3
A8
350
217C
  3
A9
350
217D
  3
B0
350
217E
  3
B1
350
217F
  3
B2
350
2180
  3
B3
350
2181
  3
B4
350
2182
  3
B5
350
2183
  3
B6
350
2184
  0
DICTIONARY
  5
2187
102
{ACAD_REACTORS
330
C
102
}
330
C
100
AcDbDictionary
281
     1
  3
ASME Y14.3 - 2003(1)
350
24A6
  3
Imperial24
350
21E1
  3
ISO 128-40_2001(E)(1)
350
21E9
  3
ISO 128-40_2001(E)(2)
350
21E3
  3
JIS  B 0001 _ 2000(1)
350
24B3
  3
Metric50
350
2188
  0
DICTIONARY
  5
1D
102
{ACAD_REACTORS
330
C
102
}
330
C
100
AcDbDictionary
281
     1
  3
Standard
350
1E
  0
DICTIONARY
  5
9BF
102
{ACAD_REACTORS
330
C
102
}
330
C
100
AcDbDictionary
281
     1
  3
2dWireframe
350
9C5
  3
3D Hidden
350
9C7
  3
3dWireframe
350
9C6
  3
Basic
350
9C4
  3
Brighten
350
9CB
  3
ColorChange
350
9CF
  3
Conceptual
350
9C8
  3
Dim
350
9CA
  3
EdgeColorOff
350
2172
  3
Facepattern
350
9CE
  3
Flat
350
9C0
  3
FlatWithEdges
350
9C1
  3
Gouraud
350
9C2
  3
GouraudWithEdges
350
9C3
  3
Hidden
350
216A
  3
JitterOff
350
2170
  3
Linepattern
350
9CD
  3
OverhangOff
350
2171
  3
Realistic
350
9C9
  3
Shaded
350
216F
  3
Shaded with edges
350
216E
  3
Shades of Gray
350
216B
  3
Sketchy
350
216C
  3
Thicken
350
9CC
  3
Wireframe
350
2169
  3
X-Ray
350
216D
  0
XRECORD
  5
26E1
102
{ACAD_REACTORS
330
C
102
}
330
C
100
AcDbXrecord
280
     1
 90
        1
330
1E
330
23DB
330
23EC
  0
DICTIONARY
  5
17C
102
{ACAD_REACTORS
330
C
102
}
330
C
100
AcDbDictionary
281
     1
  3
CANNOSCALE
350
23F8
  3
CMLEADERSTYLE
350
23F4
  3
CTABLESTYLE
350
17D
  3
CVIEWDETAILSTYLE
350
23F5
  3
CVIEWSECTIONSTYLE
350
23F6
  3
LAYEREVAL
350
23FA
  3
LAYERNOTIFY
350
23FB
  3
LIGHTINGUNITS
350
23F9
  3
MSLTSCALE
350
23F7
  0
DICTIONARY
  5
8B
102
{ACAD_REACTORS
330
C
102
}
330
C
100
AcDbDictionary
281
     1
  3
AcmStdDictionary
350
8D
  3
AMDTSECTSYM_ARROWCOLOR
350
AC
  0
DICTIONARY
  5
2F
102
{ACAD_REACTORS
330
C
102
}
330
C
100
AcDbDictionary
281
     1
  0
DICTIONARY
  5
174
102
{ACAD_REACTORS
330
C
102
}
330
C
100
AcDbDictionary
281
     1
  0
DICTIONARY
  5
DD1
102
{ACAD_REACTORS
330
60C
102
}
330
60C
100
AcDbDictionary
281
     1
  0
DICTIONARY
  5
20D0
102
{ACAD_REACTORS
330
60C
102
}
330
60C
100
AcDbDictionary
281
     1
  0
DICTIONARY
  5
DD0
102
{ACAD_REACTORS
330
60C
102
}
330
60C
100
AcDbDictionary
281
     1
1001
ACAD
1000
<All
  0
DICTIONARY
  5
60D
102
{ACAD_REACTORS
330
60C
102
}
330
60C
100
AcDbDictionary
280
     1
281
     1
  0
XRECORD
  5
23F0
102
{ACAD_REACTORS
330
23EF
102
}
330
23EF
100
AcDbXrecord
280
     1
290
     1
  0
XRECORD
  5
23F1
102
{ACAD_REACTORS
330
21CE
102
}
330
21CE
100
AcDbXrecord
280
     1
290
     1
  0
XRECORD
  5
23F2
102
{ACAD_REACTORS
330
21D0
102
}
330
21D0
100
AcDbXrecord
280
     1
290
     1
  0
XRECORD
  5
23F3
102
{ACAD_REACTORS
330
21D2
102
}
330
21D2
100
AcDbXrecord
280
     1
290
     1
  0
SORTENTSTABLE
  5
249E
102
{ACAD_REACTORS
330
249D
102
}
330
249D
100
AcDbSortentsTable
330
23
331
23B9
  5
23BB
331
23DB
  5
23DE
331
23BA
  5
23BC
331
23BB
  5
23BD
331
23EC
  5
23EE
331
23BC
  5
23BE
331
23BD
  5
23BF
331
23BE
  5
23C0
331
23BF
  5
23C1
331
23C0
  5
23C2
331
23C1
  5
23C3
331
23C2
  5
23C4
331
23C3
  5
23C5
331
23C4
  5
23C8
331
23C5
  5
23C9
331
23B7
  5
23B9
331
23B8
  5
23BA
  0
SORTENTSTABLE
  5
25B8
102
{ACAD_REACTORS
330
25B7
102
}
330
25B7
100
AcDbSortentsTable
330
24D0
  0
ACDBDETAILVIEWSTYLE
  5
24B9
102
{ACAD_XDICTIONARY
360
24BA
102
}
102
{ACAD_REACTORS
330
25C5
330
2189
330
25E1
102
}
330
2189
100
AcDbModelDocViewStyle
 70
     0
  3

290
     0
100
AcDbDetailViewStyle
 70
     0
 71
     0
 90
        3
 71
     1
340
11
 62
    30
 40
0.24
340
24A1
 62
   256
 40
0.24
300

 40
0.0
280
     2
 71
     2
340
16
 90
       25
 62
   256
 71
     3
340
11
 62
    30
 40
0.24
 90
        1
 40
0.0
 90
        1
300
%<\AcVar ViewType \f "%tc1">% %<\AcVar ViewDetailId>%\P尺度 %<\AcVar ViewScale \f "%sn">%
 71
     4
340
16
 90
       25
 62
   256
340
16
 90
       25
 62
   256
280
     0
  0
ACDBDETAILVIEWSTYLE
  5
21EF
102
{ACAD_XDICTIONARY
360
2720
102
}
102
{ACAD_REACTORS
330
2189
330
248B
102
}
330
2189
100
AcDbModelDocViewStyle
 70
     0
  3
Imperial24
290
     0
100
AcDbDetailViewStyle
 70
     0
 71
     0
 90
        3
 71
     1
340
11
 62
   256
 40
0.24
340
0
 62
   256
 40
0.24
300

 40
0.36
280
     3
 71
     2
340
16
 90
       25
 62
   256
 71
     3
340
11
 62
   256
 40
0.24
 90
        1
 40
0.75
 90
        1
300
%<\AcVar ViewType \f "%tc1">% %<\AcVar ViewDetailId>%\PSCALE %<\AcVar ViewScale \f "%sn">%
 71
     4
340
16
 90
       25
 62
   256
340
16
 90
       25
 62
   256
280
     0
  0
ACDBDETAILVIEWSTYLE
  5
24C0
102
{ACAD_XDICTIONARY
360
24C1
102
}
102
{ACAD_REACTORS
330
25C6
330
2189
330
25E2
102
}
330
2189
100
AcDbModelDocViewStyle
 70
     0
  3

290
     0
100
AcDbDetailViewStyle
 70
     0
 71
     0
 90
        3
 71
     1
340
99
 62
     7
 40
5.0
340
21A8
 62
   256
 40
5.0
300

 40
0.0
280
     0
 71
     2
340
15
 90
       25
 62
   256
 71
     3
340
99
 62
     7
 40
5.0
 90
        0
 40
0.0
 90
        1
300
%<\AcVar ViewDetailId>% (%<\AcVar ViewScale \f "%sn">%)
 71
     4
340
16
 90
       25
 62
   256
340
15
 90
       25
 62
   256
280
     0
  0
ACDBDETAILVIEWSTYLE
  5
24C9
102
{ACAD_XDICTIONARY
360
24CA
102
}
102
{ACAD_REACTORS
330
25C7
330
2189
330
25E3
102
}
330
2189
100
AcDbModelDocViewStyle
 70
     0
  3

290
     0
100
AcDbDetailViewStyle
 70
     0
 71
     0
 90
        3
 71
     1
340
11
 62
     7
 40
3.149999999999999
340
21BA
 62
   256
 40
4.5
300

 40
0.0
280
     0
 71
     2
340
8B1
 90
       25
 62
   256
 71
     3
340
11
 62
     7
 40
3.149999999999999
 90
        1
 40
0.0
 90
        1
300
Section %<\AcVar ViewDetailId>%-%<\AcVar ViewDetailId>% (%<\AcVar ViewScale \f "%sn">%)
 71
     4
340
16
 90
       25
 62
   256
340
8B1
 90
       25
 62
   256
280
     1
  0
ACDBDETAILVIEWSTYLE
  5
218A
102
{ACAD_XDICTIONARY
360
271A
102
}
102
{ACAD_REACTORS
330
2189
330
248C
102
}
330
2189
100
AcDbModelDocViewStyle
 70
     0
  3
Metric50
290
     0
100
AcDbDetailViewStyle
 70
     0
 71
     0
 90
        3
 71
     1
340
11
 62
   256
 40
5.0
340
0
 62
   256
 40
5.0
300

 40
0.0
280
     1
 71
     2
340
16
 90
       25
 62
   256
 71
     3
340
11
 62
   256
 40
5.0
 90
        0
 40
15.0
 90
        1
300
%<\AcVar ViewDetailId>% (%<\AcVar ViewScale \f "%sn">%)
 71
     4
340
16
 90
       25
 62
   256
340
16
 90
       25
 62
   256
280
     0
  0
LAYOUT
  5
26
102
{ACAD_REACTORS
330
1A
102
}
330
1A
100
AcDbPlotSettings
  1

  2
PDF.pc3
  4
A3
  6

 40
0.0
 41
0.0
 42
0.053009033203125
 43
0.1583251953125
 44
297.0530090332031
 45
420.1583251953125
 46
0.0789155888301622
 47
0.0000000000000075
 48
0.0
 49
0.0923920273426084
140
209.9098301659148
141
297.0924072861226
142
1.0
143
0.7071428934732858
 70
 11956
 72
     1
 73
     0
 74
     4
  7
monochrome.ctb
 75
     0
147
1.414141341487974
 76
     0
 77
     2
 78
   300
148
0.0
149
-0.0923920273426084
100
AcDbLayout
  1
Model
 70
     1
 71
     0
 10
0.0
 20
0.0
 11
12.0
 21
9.0
 12
0.0
 22
0.0
 32
0.0
 14
0.0
 24
0.0
 34
0.0
 15
0.0
 25
0.0
 35
0.0
146
0.0
 13
0.0
 23
0.0
 33
0.0
 16
1.0
 26
0.0
 36
0.0
 17
0.0
 27
1.0
 37
0.0
 76
     0
330
23
331
9BA
1001
ACAD_PSEXT
1000
PDF.pc3
1000
PDFill Writer
1000
PDFillWriterPort
1000
PDFill PDF&Image Writer
1070
     0
  0
LAYOUT
  5
22
102
{ACAD_REACTORS
330
1A
102
}
330
1A
100
AcDbPlotSettings
  1

  2
C:\Documents and Settings\sakurazawa\Application Data\Autodesk\AutoCAD Mechanical 2006\R16.2\jpn\plotters\Default Windows System Printer.pc3
  4

  6

 40
0.0
 41
0.0
 42
0.0
 43
0.0
 44
0.0
 45
0.0
 46
0.0
 47
0.0
 48
0.0
 49
0.0
140
0.0
141
0.0
142
1.0
143
1.0
 70
   688
 72
     0
 73
     0
 74
     5
  7
monochrome.ctb
 75
    16
147
1.0
 76
     0
 77
     2
 78
   300
148
0.0
149
0.0
100
AcDbLayout
  1
レイアウト1
 70
     1
 71
     1
 10
0.0
 20
0.0
 11
420.0
 21
297.0
 12
0.0
 22
0.0
 32
0.0
 14
1.000000000000000E+20
 24
1.000000000000000E+20
 34
1.000000000000000E+20
 15
-1.000000000000000E+20
 25
-1.000000000000000E+20
 35
-1.000000000000000E+20
146
0.0
 13
0.0
 23
0.0
 33
0.0
 16
1.0
 26
0.0
 36
0.0
 17
0.0
 27
1.0
 37
0.0
 76
     0
330
1F
  0
LAYOUT
  5
2A
102
{ACAD_REACTORS
330
1A
102
}
330
1A
100
AcDbPlotSettings
  1

  2
C:\Documents and Settings\sakurazawa\Application Data\Autodesk\AutoCAD Mechanical 2006\R16.2\jpn\plotters\Default Windows System Printer.pc3
  4

  6

 40
0.0
 41
0.0
 42
0.0
 43
0.0
 44
0.0
 45
0.0
 46
0.0
 47
0.0
 48
0.0
 49
0.0
140
0.0
141
0.0
142
1.0
143
1.0
 70
   688
 72
     0
 73
     0
 74
     5
  7
monochrome.ctb
 75
    16
147
1.0
 76
     0
 77
     2
 78
   300
148
0.0
149
0.0
100
AcDbLayout
  1
レイアウト2
 70
     1
 71
     2
 10
0.0
 20
0.0
 11
12.0
 21
9.0
 12
0.0
 22
0.0
 32
0.0
 14
0.0
 24
0.0
 34
0.0
 15
0.0
 25
0.0
 35
0.0
146
0.0
 13
0.0
 23
0.0
 33
0.0
 16
1.0
 26
0.0
 36
0.0
 17
0.0
 27
1.0
 37
0.0
 76
     0
330
27
  0
MATERIAL
  5
9BD
102
{ACAD_REACTORS
330
1B
102
}
330
1B
100
AcDbMaterial
  1
ByBlock
 73
     1
 78
     1
172
     1
176
     1
270
     1
274
     1
 94
       63
  0
MATERIAL
  5
9BC
102
{ACAD_REACTORS
330
1B
102
}
330
1B
100
AcDbMaterial
  1
ByLayer
 73
     1
 78
     1
172
     1
176
     1
270
     1
274
     1
 94
       63
  0
MATERIAL
  5
9BE
102
{ACAD_REACTORS
330
1B
102
}
330
1B
100
AcDbMaterial
  1
Global
 73
     1
 78
     1
172
     1
176
     1
270
     1
274
     1
 94
       63
  0
MLEADERSTYLE
  5
2186
102
{ACAD_XDICTIONARY
360
2716
102
}
102
{ACAD_REACTORS
330
2185
102
}
330
2185
100
AcDbMLeaderStyle
170
     2
171
     1
172
     0
 90
        2
 40
0.0
 41
0.0
173
     1
 91
-1056964608
340
14
 92
       -2
290
     1
 42
2.0
291
     1
 43
0.36
  3
Standard
 44
4.0
300

342
11
174
     1
178
     6
175
     1
176
     0
 93
-1056964608
 45
4.0
292
     0
297
     0
 46
4.0
 94
-1056964608
 47
1.0
 49
1.0
140
1.0
293
     1
141
0.0
294
     1
177
     0
142
1.0
295
     0
296
     0
143
0.125
1001
ACAD_MLEADERVER
1070
     2
  0
MLINESTYLE
  5
18
102
{ACAD_REACTORS
330
17
102
}
330
17
100
AcDbMlineStyle
  2
STANDARD
 70
     0
  3

 62
   256
 51
90.0
 52
90.0
 71
     2
 49
0.5
 62
   256
  6
BYLAYER
 49
-0.5
 62
   256
  6
BYLAYER
  0
ACDBPLACEHOLDER
  5
F
102
{ACAD_REACTORS
330
E
102
}
330
E
  0
SCALE
  5
21E0
102
{ACAD_REACTORS
330
2173
102
}
330
2173
100
AcDbScale
 70
     0
300
3:1
140
3.0
141
1.0
290
     0
  0
SCALE
  5
2174
102
{ACAD_REACTORS
330
2173
102
}
330
2173
100
AcDbScale
 70
     0
300
1:1
140
1.0
141
1.0
290
     1
  0
SCALE
  5
2175
102
{ACAD_REACTORS
330
2173
102
}
330
2173
100
AcDbScale
 70
     0
300
1:2
140
1.0
141
2.0
290
     0
  0
SCALE
  5
2176
102
{ACAD_REACTORS
330
2173
102
}
330
2173
100
AcDbScale
 70
     0
300
1:4
140
1.0
141
4.0
290
     0
  0
SCALE
  5
2177
102
{ACAD_REACTORS
330
2173
102
}
330
2173
100
AcDbScale
 70
     0
300
1:5
140
1.0
141
5.0
290
     0
  0
SCALE
  5
2178
102
{ACAD_REACTORS
330
2173
102
}
330
2173
100
AcDbScale
 70
     0
300
1:8
140
1.0
141
8.0
290
     0
  0
SCALE
  5
2179
102
{ACAD_REACTORS
330
2173
102
}
330
2173
100
AcDbScale
 70
     0
300
1:10
140
1.0
141
10.0
290
     0
  0
SCALE
  5
217A
102
{ACAD_REACTORS
330
2173
102
}
330
2173
100
AcDbScale
 70
     0
300
1:16
140
1.0
141
16.0
290
     0
  0
SCALE
  5
217B
102
{ACAD_REACTORS
330
2173
102
}
330
2173
100
AcDbScale
 70
     0
300
1:20
140
1.0
141
20.0
290
     0
  0
SCALE
  5
217C
102
{ACAD_REACTORS
330
2173
102
}
330
2173
100
AcDbScale
 70
     0
300
1:30
140
1.0
141
30.0
290
     0
  0
SCALE
  5
217D
102
{ACAD_REACTORS
330
2173
102
}
330
2173
100
AcDbScale
 70
     0
300
1:40
140
1.0
141
40.0
290
     0
  0
SCALE
  5
217E
102
{ACAD_REACTORS
330
2173
102
}
330
2173
100
AcDbScale
 70
     0
300
1:50
140
1.0
141
50.0
290
     0
  0
SCALE
  5
217F
102
{ACAD_REACTORS
330
2173
102
}
330
2173
100
AcDbScale
 70
     0
300
1:100
140
1.0
141
100.0
290
     0
  0
SCALE
  5
2180
102
{ACAD_REACTORS
330
2173
102
}
330
2173
100
AcDbScale
 70
     0
300
2:1
140
2.0
141
1.0
290
     0
  0
SCALE
  5
2181
102
{ACAD_REACTORS
330
2173
102
}
330
2173
100
AcDbScale
 70
     0
300
4:1
140
4.0
141
1.0
290
     0
  0
SCALE
  5
2182
102
{ACAD_REACTORS
330
2173
102
}
330
2173
100
AcDbScale
 70
     0
300
8:1
140
8.0
141
1.0
290
     0
  0
SCALE
  5
2183
102
{ACAD_REACTORS
330
2173
102
}
330
2173
100
AcDbScale
 70
     0
300
10:1
140
10.0
141
1.0
290
     0
  0
SCALE
  5
2184
102
{ACAD_REACTORS
330
2173
102
}
330
2173
100
AcDbScale
 70
     0
300
100:1
140
100.0
141
1.0
290
     0
  0
ACDBSECTIONVIEWSTYLE
  5
24A6
102
{ACAD_XDICTIONARY
360
24A7
102
}
102
{ACAD_REACTORS
330
25CD
330
2187
330
25E4
102
}
330
2187
100
AcDbModelDocViewStyle
 70
     0
  3

290
     0
100
AcDbSectionViewStyle
 70
     0
 71
     0
 90
       78
 71
     1
340
11
 62
    30
 40
0.24
340
0
340
0
 62
     7
 40
0.24
300
I,O,Q,S,X,Z
 40
10.0
 90
        3
 40
0.12
 90
        1
 71
     2
340
16
 90
       25
 62
   256
340
16
 90
       -1
 62
   256
 40
10.0
 40
0.0
 40
10.0
 71
     3
340
11
 62
    30
 40
0.24
 90
        0
 40
0.18
 90
        1
300
%<\AcVar ViewType \f "%tc1">% %<\AcVar ViewSectionStartId>%-%<\AcVar ViewSectionEndId>%
 71
     4
 62
   256
 62
   257
300
ANSI31
 40
1.0
 90
        0
290
     0
290
     0
 90
        6
 40
0.0
 40
1.570796326794896
 40
0.2617993877991494
 40
1.308996938995747
 40
-0.2617993877991494
 40
1.832595714594046
  0
ACDBSECTIONVIEWSTYLE
  5
21E1
102
{ACAD_XDICTIONARY
360
271C
102
}
102
{ACAD_REACTORS
330
2187
330
2487
102
}
330
2187
100
AcDbModelDocViewStyle
 70
     0
  3
Imperial24
290
     0
100
AcDbSectionViewStyle
 70
     0
 71
     0
 90
       78
 71
     1
340
11
 62
   256
 40
0.24
340
0
340
0
 62
   256
 40
0.24
300
I, O, Q, S, X, Z
 40
0.48
 90
        3
 40
0.18
 90
        1
 71
     2
340
16
 90
       25
 62
   256
340
16
 90
       50
 62
   256
 40
0.24
 40
0.0
 40
0.24
 71
     3
340
11
 62
   256
 40
0.24
 90
        1
 40
0.75
 90
        1
300
%<\AcVar ViewType \f "%tc1">% %<\AcVar ViewSectionStartId>%-%<\AcVar ViewSectionEndId>%\PSCALE %<\AcVar ViewScale \f "%sn">%
 71
     4
 62
   256
 62
   257
300
ANSI31
 40
1.0
 90
        0
290
     0
290
     0
 90
        6
 40
0.0
 40
1.570796326794896
 40
0.2617993877991494
 40
1.308996938995747
 40
-0.2617993877991494
 40
1.832595714594045
  0
ACDBSECTIONVIEWSTYLE
  5
21E9
102
{ACAD_XDICTIONARY
360
21EA
102
}
102
{ACAD_REACTORS
330
2187
330
2489
102
}
330
2187
100
AcDbModelDocViewStyle
 70
     0
  3

290
     0
100
AcDbSectionViewStyle
 70
     0
 71
     0
 90
      102
 71
     1
340
11
 62
     2
 40
5.0
340
39D
340
39D
 62
   256
 40
5.0
300
I,O,Q,S,X,Z
 40
10.0
 90
        0
 40
2.5
 90
        0
 71
     2
340
16
 90
       25
 62
   256
340
16
 90
       50
 62
   256
 40
10.0
 40
5.0
 40
10.0
 71
     3
340
11
 62
     2
 40
5.0
 90
        0
 40
3.75
 90
        1
300
%<\AcVar ViewSectionStartId>%-%<\AcVar ViewSectionEndId>%
 71
     4
 62
   256
 62
   257
300
ANSI31
 40
1.0
 90
        0
290
     0
290
     0
 90
        6
 40
0.0
 40
1.570796326794896
 40
0.2617993877991494
 40
1.308996938995747
 40
-0.2617993877991494
 40
1.832595714594045
  0
ACDBSECTIONVIEWSTYLE
  5
21E3
102
{ACAD_XDICTIONARY
360
21E4
102
}
102
{ACAD_REACTORS
330
2187
330
2488
330
25E0
102
}
330
2187
100
AcDbModelDocViewStyle
 70
     0
  3

290
     0
100
AcDbSectionViewStyle
 70
     0
 71
     0
 90
      102
 71
     1
340
11
 62
     7
 40
5.0
340
0
340
0
 62
     7
 40
5.0
300
I,O,Q,S,X,Z
 40
10.0
 90
        0
 40
2.5
 90
        0
 71
     2
340
91
 90
       50
 62
     1
340
91
 90
       50
 62
     7
 40
10.0
 40
5.0
 40
10.0
 71
     3
340
11
 62
     7
 40
5.0
 90
        0
 40
5.25
 90
        1
300
%<\AcVar ViewSectionStartId>%-%<\AcVar ViewSectionEndId>%
 71
     4
 62
   256
 62
   257
300
ANSI31
 40
1.0
 90
        0
290
     0
290
     0
 90
        6
 40
0.0
 40
1.570796326794896
 40
0.2617993877991494
 40
1.308996938995747
 40
-0.2617993877991494
 40
1.832595714594045
  0
ACDBSECTIONVIEWSTYLE
  5
24B3
102
{ACAD_XDICTIONARY
360
24B4
102
}
102
{ACAD_REACTORS
330
25CE
330
2187
330
25E5
102
}
330
2187
100
AcDbModelDocViewStyle
 70
     0
  3

290
     0
100
AcDbSectionViewStyle
 70
     0
 71
     0
 90
      110
 71
     1
340
11
 62
     7
 40
3.149999999999999
340
39D
340
39D
 62
     7
 40
4.5
300
I,O,Q,S,X,Z
 40
10.0
 90
        4
 40
1.575
 90
        0
 71
     2
340
91
 90
       -1
 62
     1
340
91
 90
       -1
 62
     7
 40
10.0
 40
5.0
 40
10.0
 71
     3
340
11
 62
     7
 40
3.149999999999999
 90
        1
 40
3.75
 90
        1
300
%<\AcVar ViewSectionStartId>%-%<\AcVar ViewSectionEndId>%
 71
     4
 62
   256
 62
   257
300
ANSI31
 40
1.0
 90
        0
290
     0
290
     0
 90
        6
 40
0.0
 40
1.570796326794896
 40
0.2617993877991494
 40
1.308996938995747
 40
-0.2617993877991494
 40
1.832595714594046
  0
ACDBSECTIONVIEWSTYLE
  5
2188
102
{ACAD_XDICTIONARY
360
2718
102
}
102
{ACAD_REACTORS
330
2187
330
248A
102
}
330
2187
100
AcDbModelDocViewStyle
 70
     0
  3
Metric50
290
     0
100
AcDbSectionViewStyle
 70
     0
 71
     0
 90
      102
 71
     1
340
11
 62
   256
 40
5.0
340
0
340
0
 62
   256
 40
5.0
300
I, O, Q, S, X, Z
 40
10.0
 90
        0
 40
2.5
 90
        0
 71
     2
340
16
 90
       25
 62
   256
340
16
 90
       50
 62
   256
 40
5.0
 40
2.5
 40
5.0
 71
     3
340
11
 62
   256
 40
5.0
 90
        0
 40
15.0
 90
        1
300
%<\AcVar ViewSectionStartId>%-%<\AcVar ViewSectionEndId>% (%<\AcVar ViewScale \f "%sn">%)
 71
     4
 62
   256
 62
   257
300
ANSI31
 40
1.0
 90
        0
290
     0
290
     0
 90
        6
 40
0.0
 40
1.570796326794896
 40
0.2617993877991494
 40
1.308996938995747
 40
-0.2617993877991494
 40
1.832595714594045
  0
TABLESTYLE
  5
1E
102
{ACAD_XDICTIONARY
360
23FC
102
}
102
{ACAD_REACTORS
330
1D
102
}
330
1D
100
AcDbTableStyle
  3
Standard
 70
     0
 71
     0
 40
1.5
 41
1.5
280
     0
281
     0
  7
STANDARD
140
4.5
170
     2
 62
     0
 63
     7
283
     0
 90
        4
 91
        0
  1

274
    -2
284
     1
 64
     0
275
    -2
285
     1
 65
     0
276
    -2
286
     1
 66
     0
277
    -2
287
     1
 67
     0
278
    -2
288
     1
 68
     0
279
    -2
289
     1
 69
     0
  7
STANDARD
140
6.0
170
     5
 62
     0
 63
     7
283
     0
 90
        4
 91
        0
  1

274
    -2
284
     1
 64
     0
275
    -2
285
     1
 65
     0
276
    -2
286
     1
 66
     0
277
    -2
287
     1
 67
     0
278
    -2
288
     1
 68
     0
279
    -2
289
     1
 69
     0
  7
STANDARD
140
4.5
170
     5
 62
     0
 63
     7
283
     0
 90
        4
 91
        0
  1

274
    -2
284
     1
 64
     0
275
    -2
285
     1
 65
     0
276
    -2
286
     1
 66
     0
277
    -2
287
     1
 67
     0
278
    -2
288
     1
 68
     0
279
    -2
289
     1
 69
     0
  0
VISUALSTYLE
  5
9C5
102
{ACAD_XDICTIONARY
360
26EC
102
}
102
{ACAD_REACTORS
330
9BF
102
}
330
9BF
100
AcDbVisualStyle
  2

 70
     4
 71
     0
 72
     2
 73
     0
 90
        0
 40
-0.6
 41
-30.0
 62
     5
 63
     7
421
 16777215
 74
     1
 91
        4
 64
     7
 65
   257
 75
     1
175
     1
 42
1.0
 92
        0
 66
   257
 43
1.0
 76
     1
 77
     6
 78
     2
 67
     7
 79
     5
170
     0
171
     0
290
     0
174
     0
 93
        1
 44
0.0
173
     0
291
     0
 45
0.0
1001
ACAD
1000
AcDbSavedByObjectVersion
1070
     0
  0
VISUALSTYLE
  5
9C7
102
{ACAD_XDICTIONARY
360
26F0
102
}
102
{ACAD_REACTORS
330
9BF
102
}
330
9BF
100
AcDbVisualStyle
  2

 70
     6
 71
     1
 72
     2
 73
     2
 90
        0
 40
-0.6
 41
-30.0
 62
     5
 63
     7
421
 16777215
 74
     2
 91
        2
 64
     7
 65
   257
 75
     2
175
     1
 42
40.0
 92
        0
 66
   257
 43
1.0
 76
     1
 77
     6
 78
     2
 67
     7
 79
     3
170
     0
171
     0
290
     0
174
     0
 93
        1
 44
0.0
173
     0
291
     0
 45
0.0
1001
ACAD
1000
AcDbSavedByObjectVersion
1070
     0
  0
VISUALSTYLE
  5
9C6
102
{ACAD_XDICTIONARY
360
26EE
102
}
102
{ACAD_REACTORS
330
9BF
102
}
330
9BF
100
AcDbVisualStyle
  2

 70
     5
 71
     0
 72
     2
 73
     0
 90
        0
 40
-0.6
 41
-30.0
 62
     5
 63
     7
421
 16777215
 74
     1
 91
        4
 64
     7
 65
   257
 75
     1
175
     1
 42
1.0
 92
        0
 66
   257
 43
1.0
 76
     1
 77
     6
 78
     2
 67
     7
 79
     5
170
     0
171
     0
290
     0
174
     0
 93
        1
 44
0.0
173
     0
291
     0
 45
0.0
1001
ACAD
1000
AcDbSavedByObjectVersion
1070
     0
  0
VISUALSTYLE
  5
9C4
102
{ACAD_XDICTIONARY
360
26EA
102
}
102
{ACAD_REACTORS
330
9BF
102
}
330
9BF
100
AcDbVisualStyle
  2

 70
     7
 71
     1
 72
     0
 73
     1
 90
        0
 40
-0.6
 41
-30.0
 62
     5
 63
     7
421
 16777215
 74
     0
 91
        4
 64
     7
 65
   257
 75
     1
175
     1
 42
1.0
 92
        8
 66
     7
 43
1.0
 76
     1
 77
     6
 78
     2
 67
     7
 79
     5
170
     0
171
     0
290
     0
174
     0
 93
        1
 44
0.0
173
     0
291
     1
 45
0.0
1001
ACAD
1000
AcDbSavedByObjectVersion
1070
     0
  0
VISUALSTYLE
  5
9CB
102
{ACAD_XDICTIONARY
360
26F8
102
}
102
{ACAD_REACTORS
330
9BF
102
}
330
9BF
100
AcDbVisualStyle
  2

 70
    12
 71
     2
 72
     2
 73
     0
 90
        0
 40
-0.6
 41
-30.0
 62
     5
 63
     7
421
 16777215
 74
     1
 91
        4
 64
     7
 65
   257
 75
     1
175
     1
 42
1.0
 92
        8
 66
     7
 43
1.0
 76
     1
 77
     6
 78
     2
 67
     7
 79
     5
170
     0
171
     0
290
     0
174
     0
 93
        1
 44
50.0
173
     0
291
     1
 45
0.0
1001
ACAD
1000
AcDbSavedByObjectVersion
1070
     0
  0
VISUALSTYLE
  5
9CF
102
{ACAD_XDICTIONARY
360
2700
102
}
102
{ACAD_REACTORS
330
9BF
102
}
330
9BF
100
AcDbVisualStyle
  2

 70
    16
 71
     2
 72
     2
 73
     3
 90
        0
 40
-0.6
 41
-30.0
 62
     5
 63
     8
421
  8421504
 74
     1
 91
        4
 64
     7
 65
   257
 75
     1
175
     1
 42
1.0
 92
        8
 66
     8
424
  8421504
 43
1.0
 76
     1
 77
     6
 78
     2
 67
     7
 79
     5
170
     0
171
     0
290
     0
174
     0
 93
        1
 44
0.0
173
     0
291
     1
 45
0.0
1001
ACAD
1000
AcDbSavedByObjectVersion
1070
     0
  0
VISUALSTYLE
  5
9C8
102
{ACAD_XDICTIONARY
360
26F2
102
}
102
{ACAD_REACTORS
330
9BF
102
}
330
9BF
100
AcDbVisualStyle
  2

 70
     9
 71
     3
 72
     2
 73
     0
 90
        0
 40
-0.6
 41
-30.0
 62
     5
 63
     7
421
 16777215
 74
     2
 91
        2
 64
     7
 65
   257
 75
     1
175
     1
 42
40.0
 92
        8
 66
     7
 43
1.0
 76
     1
 77
     6
 78
     2
 67
     7
 79
     3
170
     0
171
     0
290
     0
174
     0
 93
        1
 44
0.0
173
     0
291
     0
 45
0.0
1001
ACAD
1000
AcDbSavedByObjectVersion
1070
     0
  0
VISUALSTYLE
  5
9CA
102
{ACAD_XDICTIONARY
360
26F6
102
}
102
{ACAD_REACTORS
330
9BF
102
}
330
9BF
100
AcDbVisualStyle
  2

 70
    11
 71
     2
 72
     2
 73
     0
 90
        0
 40
-0.6
 41
-30.0
 62
     5
 63
     7
421
 16777215
 74
     1
 91
        4
 64
     7
 65
   257
 75
     1
175
     1
 42
1.0
 92
        8
 66
     7
 43
1.0
 76
     1
 77
     6
 78
     2
 67
     7
 79
     5
170
     0
171
     0
290
     0
174
     0
 93
        1
 44
-50.0
173
     0
291
     1
 45
0.0
1001
ACAD
1000
AcDbSavedByObjectVersion
1070
     0
  0
VISUALSTYLE
  5
2172
102
{ACAD_XDICTIONARY
360
2714
102
}
102
{ACAD_REACTORS
330
9BF
102
}
330
9BF
100
AcDbVisualStyle
  2

 70
    22
 71
     2
 72
     2
 73
     0
 90
        0
 40
-0.6
 41
-30.0
 62
     5
 63
     7
421
 16777215
 74
     1
 91
        4
 64
     7
 65
   257
 75
     1
175
     1
 42
1.0
 92
        8
 66
     7
 43
1.0
 76
     1
 77
     6
 78
     2
 67
     7
 79
     5
170
     0
171
     0
290
     0
174
     0
 93
        1
 44
0.0
173
     0
291
     1
 45
0.0
1001
ACAD
1000
AcDbSavedByObjectVersion
1070
     0
  0
VISUALSTYLE
  5
9CE
102
{ACAD_XDICTIONARY
360
26FE
102
}
102
{ACAD_REACTORS
330
9BF
102
}
330
9BF
100
AcDbVisualStyle
  2

 70
    15
 71
     2
 72
     2
 73
     0
 90
        0
 40
-0.6
 41
-30.0
 62
     5
 63
     7
421
 16777215
 74
     1
 91
        4
 64
     7
 65
   257
 75
     1
175
     1
 42
1.0
 92
        8
 66
     7
 43
1.0
 76
     1
 77
     6
 78
     2
 67
     7
 79
     5
170
     0
171
     0
290
     0
174
     0
 93
        1
 44
0.0
173
     0
291
     1
 45
0.0
1001
ACAD
1000
AcDbSavedByObjectVersion
1070
     0
  0
VISUALSTYLE
  5
9C0
102
{ACAD_XDICTIONARY
360
26E2
102
}
102
{ACAD_REACTORS
330
9BF
102
}
330
9BF
100
AcDbVisualStyle
  2

 70
     0
 71
     2
 72
     1
 73
     1
 90
        2
 40
-0.6
 41
30.0
 62
     5
 63
     7
421
 16777215
 74
     0
 91
        4
 64
     7
 65
   257
 75
     1
175
     1
 42
1.0
 92
        8
 66
     7
 43
1.0
 76
     1
 77
     6
 78
     2
 67
     7
 79
     5
170
     0
171
     0
290
     0
174
     0
 93
       13
 44
0.0
173
     0
291
     1
 45
0.0
1001
ACAD
1000
AcDbSavedByObjectVersion
1070
     0
  0
VISUALSTYLE
  5
9C1
102
{ACAD_XDICTIONARY
360
26E4
102
}
102
{ACAD_REACTORS
330
9BF
102
}
330
9BF
100
AcDbVisualStyle
  2

 70
     1
 71
     2
 72
     1
 73
     1
 90
        2
 40
-0.6
 41
30.0
 62
     5
 63
     7
421
 16777215
 74
     1
 91
        4
 64
     7
 65
   257
 75
     1
175
     1
 42
1.0
 92
        0
 66
   257
 43
1.0
 76
     1
 77
     6
 78
     2
 67
     7
 79
     5
170
     0
171
     0
290
     0
174
     0
 93
       13
 44
0.0
173
     0
291
     1
 45
0.0
1001
ACAD
1000
AcDbSavedByObjectVersion
1070
     0
  0
VISUALSTYLE
  5
9C2
102
{ACAD_XDICTIONARY
360
26E6
102
}
102
{ACAD_REACTORS
330
9BF
102
}
330
9BF
100
AcDbVisualStyle
  2

 70
     2
 71
     2
 72
     2
 73
     1
 90
        2
 40
-0.6
 41
30.0
 62
     5
 63
     7
421
 16777215
 74
     0
 91
        4
 64
     7
 65
   257
 75
     1
175
     1
 42
1.0
 92
        0
 66
     7
 43
1.0
 76
     1
 77
     6
 78
     2
 67
     7
 79
     5
170
     0
171
     0
290
     0
174
     0
 93
       13
 44
0.0
173
     0
291
     1
 45
0.0
1001
ACAD
1000
AcDbSavedByObjectVersion
1070
     0
  0
VISUALSTYLE
  5
9C3
102
{ACAD_XDICTIONARY
360
26E8
102
}
102
{ACAD_REACTORS
330
9BF
102
}
330
9BF
100
AcDbVisualStyle
  2

 70
     3
 71
     2
 72
     2
 73
     1
 90
        2
 40
-0.6
 41
30.0
 62
     5
 63
     7
421
 16777215
 74
     1
 91
        4
 64
     7
 65
   257
 75
     1
175
     1
 42
1.0
 92
        0
 66
   257
 43
1.0
 76
     1
 77
     6
 78
     2
 67
     7
 79
     5
170
     0
171
     0
290
     0
174
     0
 93
       13
 44
0.0
173
     0
291
     1
 45
0.0
1001
ACAD
1000
AcDbSavedByObjectVersion
1070
     0
  0
VISUALSTYLE
  5
216A
102
{ACAD_XDICTIONARY
360
2704
102
}
102
{ACAD_REACTORS
330
9BF
102
}
330
9BF
100
AcDbVisualStyle
  2

 70
     6
 71
     1
 72
     2
 73
     2
 90
        0
 40
-0.6
 41
-30.0
 62
     5
 63
     7
421
 16777215
 74
     2
 91
        2
 64
     7
 65
   257
 75
     2
175
     1
 42
40.0
 92
        0
 66
   257
 43
1.0
 76
     1
 77
     6
 78
     2
 67
     7
 79
     3
170
     0
171
     0
290
     0
174
     0
 93
        1
 44
0.0
173
     0
291
     0
 45
0.0
1001
ACAD
1000
AcDbSavedByObjectVersion
1070
     0
  0
VISUALSTYLE
  5
2170
102
{ACAD_XDICTIONARY
360
2710
102
}
102
{ACAD_REACTORS
330
9BF
102
}
330
9BF
100
AcDbVisualStyle
  2

 70
    20
 71
     2
 72
     2
 73
     0
 90
        0
 40
-0.6
 41
-30.0
 62
     5
 63
     7
421
 16777215
 74
     1
 91
        4
 64
     7
 65
   257
 75
     1
175
     1
 42
1.0
 92
       10
 66
     7
 43
1.0
 76
     1
 77
     6
 78
     2
 67
     7
 79
     5
170
     0
171
     0
290
     0
174
     0
 93
        1
 44
0.0
173
     0
291
     1
 45
0.0
1001
ACAD
1000
AcDbSavedByObjectVersion
1070
     0
  0
VISUALSTYLE
  5
9CD
102
{ACAD_XDICTIONARY
360
26FC
102
}
102
{ACAD_REACTORS
330
9BF
102
}
330
9BF
100
AcDbVisualStyle
  2

 70
    14
 71
     2
 72
     2
 73
     0
 90
        0
 40
-0.6
 41
-30.0
 62
     5
 63
     7
421
 16777215
 74
     1
 91
        4
 64
     7
 65
   257
 75
     7
175
     7
 42
1.0
 92
        8
 66
     7
 43
1.0
 76
     1
 77
     6
 78
     2
 67
     7
 79
     5
170
     0
171
     0
290
     0
174
     0
 93
        1
 44
0.0
173
     0
291
     1
 45
0.0
1001
ACAD
1000
AcDbSavedByObjectVersion
1070
     0
  0
VISUALSTYLE
  5
2171
102
{ACAD_XDICTIONARY
360
2712
102
}
102
{ACAD_REACTORS
330
9BF
102
}
330
9BF
100
AcDbVisualStyle
  2

 70
    21
 71
     2
 72
     2
 73
     0
 90
        0
 40
-0.6
 41
-30.0
 62
     5
 63
     7
421
 16777215
 74
     1
 91
        4
 64
     7
 65
   257
 75
     1
175
     1
 42
1.0
 92
        9
 66
     7
 43
1.0
 76
     1
 77
     6
 78
     2
 67
     7
 79
     5
170
     0
171
     0
290
     0
174
     0
 93
        1
 44
0.0
173
     0
291
     1
 45
0.0
1001
ACAD
1000
AcDbSavedByObjectVersion
1070
     0
  0
VISUALSTYLE
  5
9C9
102
{ACAD_XDICTIONARY
360
26F4
102
}
102
{ACAD_REACTORS
330
9BF
102
}
330
9BF
100
AcDbVisualStyle
  2

 70
     8
 71
     2
 72
     2
 73
     0
 90
        0
 40
-0.6
 41
-30.0
 62
     5
 63
     7
421
 16777215
 74
     1
 91
        0
 64
     7
 65
   257
 75
     1
175
     1
 42
1.0
 92
        8
 66
     8
424
  7895160
 43
1.0
 76
     1
 77
     6
 78
     2
 67
     7
 79
     5
170
     0
171
     0
290
     0
174
     0
 93
       13
 44
0.0
173
     0
291
     0
 45
0.0
1001
ACAD
1000
AcDbSavedByObjectVersion
1070
     0
  0
VISUALSTYLE
  5
216F
102
{ACAD_XDICTIONARY
360
270E
102
}
102
{ACAD_REACTORS
330
9BF
102
}
330
9BF
100
AcDbVisualStyle
  2

 70
    27
 71
     2
 72
     2
 73
     1
 90
        2
 40
-0.6
 41
30.0
 62
     5
 63
     7
421
 16777215
 74
     0
 91
        4
 64
     7
 65
   257
 75
     1
175
     1
 42
1.0
 92
        8
 66
   257
 43
1.0
 76
     1
 77
     6
 78
     2
 67
     8
425
  7895160
 79
     3
170
     0
171
     0
290
     0
174
     0
 93
        5
 44
0.0
173
     0
291
     0
 45
0.0
1001
ACAD
1000
AcDbSavedByObjectVersion
1070
     0
  0
VISUALSTYLE
  5
216E
102
{ACAD_XDICTIONARY
360
270C
102
}
102
{ACAD_REACTORS
330
9BF
102
}
330
9BF
100
AcDbVisualStyle
  2

 70
    26
 71
     2
 72
     2
 73
     1
 90
        2
 40
-0.6
 41
30.0
 62
     5
 63
     7
421
 16777215
 74
     1
 91
       10
 64
     7
 65
   257
 75
     2
175
     1
 42
1.0
 92
        8
 66
   257
 43
1.0
 76
     1
 77
     6
 78
     2
 67
     7
 79
     3
170
     0
171
     0
290
     0
174
     0
 93
        5
 44
0.0
173
     0
291
     0
 45
0.0
1001
ACAD
1000
AcDbSavedByObjectVersion
1070
     0
  0
VISUALSTYLE
  5
216B
102
{ACAD_XDICTIONARY
360
2706
102
}
102
{ACAD_REACTORS
330
9BF
102
}
330
9BF
100
AcDbVisualStyle
  2

 70
    23
 71
     2
 72
     2
 73
     3
 90
        0
 40
-0.6
 41
-30.0
 62
     5
 63
     7
421
 16777215
 74
     2
 91
        2
 64
     7
 65
     7
 75
     1
175
     1
 42
40.0
 92
        8
 66
     7
 43
1.0
 76
     1
 77
     6
 78
     2
 67
     7
 79
     3
170
     0
171
     0
290
     0
174
     0
 93
        1
 44
0.0
173
     0
291
     0
 45
0.0
1001
ACAD
1000
AcDbSavedByObjectVersion
1070
     0
  0
VISUALSTYLE
  5
216C
102
{ACAD_XDICTIONARY
360
2708
102
}
102
{ACAD_REACTORS
330
9BF
102
}
330
9BF
100
AcDbVisualStyle
  2

 70
    24
 71
     1
 72
     2
 73
     2
 90
        0
 40
-0.6
 41
-30.0
 62
     5
 63
     7
421
 16777215
 74
     2
 91
        2
 64
     7
 65
     7
 75
     1
175
     1
 42
40.0
 92
       11
 66
     7
 43
1.0
 76
     1
 77
     6
 78
     2
 67
     7
 79
     6
170
     0
171
     0
290
     0
174
     0
 93
        1
 44
0.0
173
     0
291
     0
 45
0.0
1001
ACAD
1000
AcDbSavedByObjectVersion
1070
     0
  0
VISUALSTYLE
  5
9CC
102
{ACAD_XDICTIONARY
360
26FA
102
}
102
{ACAD_REACTORS
330
9BF
102
}
330
9BF
100
AcDbVisualStyle
  2

 70
    13
 71
     2
 72
     2
 73
     0
 90
        0
 40
-0.6
 41
-30.0
 62
     5
 63
     7
421
 16777215
 74
     1
 91
        4
 64
     7
 65
   257
 75
     1
175
     1
 42
1.0
 92
       12
 66
     7
 43
1.0
 76
     1
 77
     6
 78
     2
 67
     7
 79
     5
170
     0
171
     0
290
     0
174
     0
 93
        1
 44
0.0
173
     0
291
     1
 45
0.0
1001
ACAD
1000
AcDbSavedByObjectVersion
1070
     0
  0
VISUALSTYLE
  5
2169
102
{ACAD_XDICTIONARY
360
2702
102
}
102
{ACAD_REACTORS
330
9BF
102
}
330
9BF
100
AcDbVisualStyle
  2

 70
     5
 71
     0
 72
     2
 73
     0
 90
        0
 40
-0.6
 41
-30.0
 62
     5
 63
     7
421
 16777215
 74
     1
 91
        4
 64
     7
 65
   257
 75
     1
175
     1
 42
1.0
 92
        0
 66
   257
 43
1.0
 76
     1
 77
     6
 78
     2
 67
     7
 79
     3
170
     0
171
     0
290
     0
174
     0
 93
        1
 44
0.0
173
     0
291
     0
 45
0.0
1001
ACAD
1000
AcDbSavedByObjectVersion
1070
     0
  0
VISUALSTYLE
  5
216D
102
{ACAD_XDICTIONARY
360
270A
102
}
102
{ACAD_REACTORS
330
9BF
102
}
330
9BF
100
AcDbVisualStyle
  2

 70
    25
 71
     2
 72
     2
 73
     1
 90
        1
 40
0.5
 41
-30.0
 62
     5
 63
     7
421
 16777215
 74
     1
 91
        0
 64
     7
 65
   257
 75
     1
175
     1
 42
1.0
 92
        8
 66
     7
 43
1.0
 76
     1
 77
     6
 78
     2
 67
     7
 79
     3
170
     0
171
     0
290
     0
174
     0
 93
       13
 44
0.0
173
     0
291
     0
 45
0.0
1001
ACAD
1000
AcDbSavedByObjectVersion
1070
     0
  0
DICTIONARYVAR
  5
23F8
102
{ACAD_REACTORS
330
17C
102
}
330
17C
100
DictionaryVariables
280
     0
  1
1:1
  0
DICTIONARYVAR
  5
23F4
102
{ACAD_REACTORS
330
17C
102
}
330
17C
100
DictionaryVariables
280
     0
  1
STANDARD
  0
DICTIONARYVAR
  5
17D
102
{ACAD_REACTORS
330
17C
102
}
330
17C
100
DictionaryVariables
280
     0
  1
STANDARD
  0
DICTIONARYVAR
  5
23F5
102
{ACAD_REACTORS
330
17C
102
}
330
17C
100
DictionaryVariables
280
     0
  1
Metric50
  0
DICTIONARYVAR
  5
23F6
102
{ACAD_REACTORS
330
17C
102
}
330
17C
100
DictionaryVariables
280
     0
  1
Metric50
  0
DICTIONARYVAR
  5
23FA
102
{ACAD_REACTORS
330
17C
102
}
330
17C
100
DictionaryVariables
280
     0
  1
1
  0
DICTIONARYVAR
  5
23FB
102
{ACAD_REACTORS
330
17C
102
}
330
17C
100
DictionaryVariables
280
     0
  1
15
  0
DICTIONARYVAR
  5
23F9
102
{ACAD_REACTORS
330
17C
102
}
330
17C
100
DictionaryVariables
280
     0
  1
0
  0
DICTIONARYVAR
  5
23F7
102
{ACAD_REACTORS
330
17C
102
}
330
17C
100
DictionaryVariables
280
     0
  1
0
  0
DICTIONARY
  5
8D
102
{ACAD_REACTORS
330
8B
102
}
330
8B
100
AcDbDictionary
281
     1
  0
XRECORD
  5
AC
102
{ACAD_REACTORS
330
8B
102
}
330
8B
100
AcDbXrecord
280
     1
 90
-1023410169
  0
DICTIONARY
  5
24BA
330
24B9
100
AcDbDictionary
280
     1
281
     1
  3
ACAD_FIELD
360
24BB
  3
ACAD_XREC_ROUNDTRIP
360
2724
  0
DICTIONARY
  5
2720
330
21EF
100
AcDbDictionary
280
     1
281
     1
  3
ACAD_XREC_ROUNDTRIP
360
2721
  0
DICTIONARY
  5
24C1
330
24C0
100
AcDbDictionary
280
     1
281
     1
  3
ACAD_XREC_ROUNDTRIP
360
2725
  0
DICTIONARY
  5
24CA
330
24C9
100
AcDbDictionary
280
     1
281
     1
  3
ACAD_FIELD
360
24CB
  3
ACAD_XREC_ROUNDTRIP
360
2726
  0
DICTIONARY
  5
271A
330
218A
100
AcDbDictionary
280
     1
281
     1
  3
ACAD_XREC_ROUNDTRIP
360
271B
  0
DICTIONARY
  5
2716
330
2186
100
AcDbDictionary
280
     1
281
     1
  3
ACAD_XREC_ROUNDTRIP
360
2717
  0
DICTIONARY
  5
24A7
330
24A6
100
AcDbDictionary
280
     1
281
     1
  3
ACAD_FIELD
360
24A8
  3
ACAD_XREC_ROUNDTRIP
360
2722
  0
DICTIONARY
  5
271C
330
21E1
100
AcDbDictionary
280
     1
281
     1
  3
ACAD_XREC_ROUNDTRIP
360
271D
  0
DICTIONARY
  5
21EA
330
21E9
100
AcDbDictionary
280
     1
281
     1
  3
ACAD_FIELD
360
21EB
  3
ACAD_XREC_ROUNDTRIP
360
271F
  0
DICTIONARY
  5
21E4
330
21E3
100
AcDbDictionary
280
     1
281
     1
  3
ACAD_FIELD
360
21E5
  3
ACAD_XREC_ROUNDTRIP
360
271E
  0
DICTIONARY
  5
24B4
330
24B3
100
AcDbDictionary
280
     1
281
     1
  3
ACAD_FIELD
360
24B5
  3
ACAD_XREC_ROUNDTRIP
360
2723
  0
DICTIONARY
  5
2718
330
2188
100
AcDbDictionary
280
     1
281
     1
  3
ACAD_XREC_ROUNDTRIP
360
2719
  0
DICTIONARY
  5
23FC
330
1E
100
AcDbDictionary
280
     1
281
     1
  3
ACAD_ROUNDTRIP_2008_TABLESTYLE_CELLSTYLEMAP
360
26E0
  0
DICTIONARY
  5
26EC
330
9C5
100
AcDbDictionary
280
     1
281
     1
  3
ACAD_XREC_ROUNDTRIP
360
26ED
  0
DICTIONARY
  5
26F0
330
9C7
100
AcDbDictionary
280
     1
281
     1
  3
ACAD_XREC_ROUNDTRIP
360
26F1
  0
DICTIONARY
  5
26EE
330
9C6
100
AcDbDictionary
280
     1
281
     1
  3
ACAD_XREC_ROUNDTRIP
360
26EF
  0
DICTIONARY
  5
26EA
330
9C4
100
AcDbDictionary
280
     1
281
     1
  3
ACAD_XREC_ROUNDTRIP
360
26EB
  0
DICTIONARY
  5
26F8
330
9CB
100
AcDbDictionary
280
     1
281
     1
  3
ACAD_XREC_ROUNDTRIP
360
26F9
  0
DICTIONARY
  5
2700
330
9CF
100
AcDbDictionary
280
     1
281
     1
  3
ACAD_XREC_ROUNDTRIP
360
2701
  0
DICTIONARY
  5
26F2
330
9C8
100
AcDbDictionary
280
     1
281
     1
  3
ACAD_XREC_ROUNDTRIP
360
26F3
  0
DICTIONARY
  5
26F6
330
9CA
100
AcDbDictionary
280
     1
281
     1
  3
ACAD_XREC_ROUNDTRIP
360
26F7
  0
DICTIONARY
  5
2714
330
2172
100
AcDbDictionary
280
     1
281
     1
  3
ACAD_XREC_ROUNDTRIP
360
2715
  0
DICTIONARY
  5
26FE
330
9CE
100
AcDbDictionary
280
     1
281
     1
  3
ACAD_XREC_ROUNDTRIP
360
26FF
  0
DICTIONARY
  5
26E2
330
9C0
100
AcDbDictionary
280
     1
281
     1
  3
ACAD_XREC_ROUNDTRIP
360
26E3
  0
DICTIONARY
  5
26E4
330
9C1
100
AcDbDictionary
280
     1
281
     1
  3
ACAD_XREC_ROUNDTRIP
360
26E5
  0
DICTIONARY
  5
26E6
330
9C2
100
AcDbDictionary
280
     1
281
     1
  3
ACAD_XREC_ROUNDTRIP
360
26E7
  0
DICTIONARY
  5
26E8
330
9C3
100
AcDbDictionary
280
     1
281
     1
  3
ACAD_XREC_ROUNDTRIP
360
26E9
  0
DICTIONARY
  5
2704
330
216A
100
AcDbDictionary
280
     1
281
     1
  3
ACAD_XREC_ROUNDTRIP
360
2705
  0
DICTIONARY
  5
2710
330
2170
100
AcDbDictionary
280
     1
281
     1
  3
ACAD_XREC_ROUNDTRIP
360
2711
  0
DICTIONARY
  5
26FC
330
9CD
100
AcDbDictionary
280
     1
281
     1
  3
ACAD_XREC_ROUNDTRIP
360
26FD
  0
DICTIONARY
  5
2712
330
2171
100
AcDbDictionary
280
     1
281
     1
  3
ACAD_XREC_ROUNDTRIP
360
2713
  0
DICTIONARY
  5
26F4
330
9C9
100
AcDbDictionary
280
     1
281
     1
  3
ACAD_XREC_ROUNDTRIP
360
26F5
  0
DICTIONARY
  5
270E
330
216F
100
AcDbDictionary
280
     1
281
     1
  3
ACAD_XREC_ROUNDTRIP
360
270F
  0
DICTIONARY
  5
270C
330
216E
100
AcDbDictionary
280
     1
281
     1
  3
ACAD_XREC_ROUNDTRIP
360
270D
  0
DICTIONARY
  5
2706
330
216B
100
AcDbDictionary
280
     1
281
     1
  3
ACAD_XREC_ROUNDTRIP
360
2707
  0
DICTIONARY
  5
2708
330
216C
100
AcDbDictionary
280
     1
281
     1
  3
ACAD_XREC_ROUNDTRIP
360
2709
  0
DICTIONARY
  5
26FA
330
9CC
100
AcDbDictionary
280
     1
281
     1
  3
ACAD_XREC_ROUNDTRIP
360
26FB
  0
DICTIONARY
  5
2702
330
2169
100
AcDbDictionary
280
     1
281
     1
  3
ACAD_XREC_ROUNDTRIP
360
2703
  0
DICTIONARY
  5
270A
330
216D
100
AcDbDictionary
280
     1
281
     1
  3
ACAD_XREC_ROUNDTRIP
360
270B
  0
DICTIONARY
  5
24BB
102
{ACAD_REACTORS
330
24BA
102
}
330
24BA
100
AcDbDictionary
280
     1
281
     1
  3
TEXT
360
24BC
  0
XRECORD
  5
2724
102
{ACAD_REACTORS
330
24BA
102
}
330
24BA
100
AcDbXrecord
280
     1
102
DISPLAYNAME
  1
ASME Y14.35 - 1987(1)
102
FLAGS
 90
        0
  0
XRECORD
  5
2721
102
{ACAD_REACTORS
330
2720
102
}
330
2720
100
AcDbXrecord
280
     1
102
DISPLAYNAME
  1
Imperial24
102
FLAGS
 90
        0
  0
XRECORD
  5
2725
102
{ACAD_REACTORS
330
24C1
102
}
330
24C1
100
AcDbXrecord
280
     1
102
DISPLAYNAME
  1
ISO 128-34_2001(1)
102
FLAGS
 90
        0
  0
DICTIONARY
  5
24CB
102
{ACAD_REACTORS
330
24CA
102
}
330
24CA
100
AcDbDictionary
280
     1
281
     1
  3
TEXT
360
24CC
  0
XRECORD
  5
2726
102
{ACAD_REACTORS
330
24CA
102
}
330
24CA
100
AcDbXrecord
280
     1
102
DISPLAYNAME
  1
JIS Z 8316 _ 1999(1)
102
FLAGS
 90
        0
  0
XRECORD
  5
271B
102
{ACAD_REACTORS
330
271A
102
}
330
271A
100
AcDbXrecord
280
     1
102
DISPLAYNAME
  1
Metric50
102
FLAGS
 90
        0
  0
XRECORD
  5
2717
102
{ACAD_REACTORS
330
2716
102
}
330
2716
100
AcDbXrecord
280
     1
102
ACAD_ROUNDTRIP_2012_MLEADER_STYLE
298
     1
  0
DICTIONARY
  5
24A8
102
{ACAD_REACTORS
330
24A7
102
}
330
24A7
100
AcDbDictionary
280
     1
281
     1
  3
TEXT
360
24A9
  0
XRECORD
  5
2722
102
{ACAD_REACTORS
330
24A7
102
}
330
24A7
100
AcDbXrecord
280
     1
102
DISPLAYNAME
  1
ASME Y14.3 - 2003(1)
102
FLAGS
 90
        0
  0
XRECORD
  5
271D
102
{ACAD_REACTORS
330
271C
102
}
330
271C
100
AcDbXrecord
280
     1
102
DISPLAYNAME
  1
Imperial24
102
FLAGS
 90
        0
  0
DICTIONARY
  5
21EB
102
{ACAD_REACTORS
330
21EA
102
}
330
21EA
100
AcDbDictionary
280
     1
281
     1
  3
TEXT
360
21EC
  0
XRECORD
  5
271F
102
{ACAD_REACTORS
330
21EA
102
}
330
21EA
100
AcDbXrecord
280
     1
102
DISPLAYNAME
  1
ISO 128-40_2001(E)(1)
102
FLAGS
 90
        0
  0
DICTIONARY
  5
21E5
102
{ACAD_REACTORS
330
21E4
102
}
330
21E4
100
AcDbDictionary
280
     1
281
     1
  3
TEXT
360
21E6
  0
XRECORD
  5
271E
102
{ACAD_REACTORS
330
21E4
102
}
330
21E4
100
AcDbXrecord
280
     1
102
DISPLAYNAME
  1
ISO 128-40:2001(E)(2)
102
FLAGS
 90
        0
  0
DICTIONARY
  5
24B5
102
{ACAD_REACTORS
330
24B4
102
}
330
24B4
100
AcDbDictionary
280
     1
281
     1
  3
TEXT
360
24B6
  0
XRECORD
  5
2723
102
{ACAD_REACTORS
330
24B4
102
}
330
24B4
100
AcDbXrecord
280
     1
102
DISPLAYNAME
  1
JIS  B 0001 _ 2000(1)
102
FLAGS
 90
        0
  0
XRECORD
  5
2719
102
{ACAD_REACTORS
330
2718
102
}
330
2718
100
AcDbXrecord
280
     1
102
DISPLAYNAME
  1
Metric50
102
FLAGS
 90
        0
  0
CELLSTYLEMAP
  5
26E0
102
{ACAD_REACTORS
330
23FC
102
}
330
23FC
100
AcDbCellStyleMap
 90
        3
300
CELLSTYLE
  1
TABLEFORMAT_BEGIN
 90
        5
170
     1
 91
        0
 92
    32768
 62
   257
 93
        1
300
CONTENTFORMAT
  1
CONTENTFORMAT_BEGIN
 90
        0
 91
        0
 92
        4
 93
        0
300

 40
0.0
140
1.0
 94
        5
 62
     0
340
11
144
6.0
309
CONTENTFORMAT_END
171
     1
301
MARGIN
  1
CELLMARGIN_BEGIN
 40
1.5
 40
1.5
 40
1.5
 40
1.5
 40
0.18
 40
0.18
309
CELLMARGIN_END
 94
        6
 95
        1
302
GRIDFORMAT
  1
GRIDFORMAT_BEGIN
 90
        0
 91
        1
 62
     0
 92
       -2
340
0
 93
        0
 40
0.045
309
GRIDFORMAT_END
 95
        2
302
GRIDFORMAT
  1
GRIDFORMAT_BEGIN
 90
        0
 91
        1
 62
     0
 92
       -2
340
0
 93
        0
 40
0.045
309
GRIDFORMAT_END
 95
        4
302
GRIDFORMAT
  1
GRIDFORMAT_BEGIN
 90
        0
 91
        1
 62
     0
 92
       -2
340
0
 93
        0
 40
0.045
309
GRIDFORMAT_END
 95
        8
302
GRIDFORMAT
  1
GRIDFORMAT_BEGIN
 90
        0
 91
        1
 62
     0
 92
       -2
340
0
 93
        0
 40
0.045
309
GRIDFORMAT_END
 95
       16
302
GRIDFORMAT
  1
GRIDFORMAT_BEGIN
 90
        0
 91
        1
 62
     0
 92
       -2
340
0
 93
        0
 40
0.045
309
GRIDFORMAT_END
 95
       32
302
GRIDFORMAT
  1
GRIDFORMAT_BEGIN
 90
        0
 91
        1
 62
     0
 92
       -2
340
0
 93
        0
 40
0.045
309
GRIDFORMAT_END
309
TABLEFORMAT_END
  1
CELLSTYLE_BEGIN
 90
        1
 91
        1
300
_TITLE
309
CELLSTYLE_END
300
CELLSTYLE
  1
TABLEFORMAT_BEGIN
 90
        5
170
     1
 91
        0
 92
        0
 62
   257
 93
        1
300
CONTENTFORMAT
  1
CONTENTFORMAT_BEGIN
 90
        0
 91
        0
 92
        4
 93
        0
300

 40
0.0
140
1.0
 94
        5
 62
     0
340
11
144
4.5
309
CONTENTFORMAT_END
171
     1
301
MARGIN
  1
CELLMARGIN_BEGIN
 40
1.5
 40
1.5
 40
1.5
 40
1.5
 40
0.18
 40
0.18
309
CELLMARGIN_END
 94
        6
 95
        1
302
GRIDFORMAT
  1
GRIDFORMAT_BEGIN
 90
        0
 91
        1
 62
     0
 92
       -2
340
0
 93
        0
 40
0.045
309
GRIDFORMAT_END
 95
        2
302
GRIDFORMAT
  1
GRIDFORMAT_BEGIN
 90
        0
 91
        1
 62
     0
 92
       -2
340
0
 93
        0
 40
0.045
309
GRIDFORMAT_END
 95
        4
302
GRIDFORMAT
  1
GRIDFORMAT_BEGIN
 90
        0
 91
        1
 62
     0
 92
       -2
340
0
 93
        0
 40
0.045
309
GRIDFORMAT_END
 95
        8
302
GRIDFORMAT
  1
GRIDFORMAT_BEGIN
 90
        0
 91
        1
 62
     0
 92
       -2
340
0
 93
        0
 40
0.045
309
GRIDFORMAT_END
 95
       16
302
GRIDFORMAT
  1
GRIDFORMAT_BEGIN
 90
        0
 91
        1
 62
     0
 92
       -2
340
0
 93
        0
 40
0.045
309
GRIDFORMAT_END
 95
       32
302
GRIDFORMAT
  1
GRIDFORMAT_BEGIN
 90
        0
 91
        1
 62
     0
 92
       -2
340
0
 93
        0
 40
0.045
309
GRIDFORMAT_END
309
TABLEFORMAT_END
  1
CELLSTYLE_BEGIN
 90
        2
 91
        1
300
_HEADER
309
CELLSTYLE_END
300
CELLSTYLE
  1
TABLEFORMAT_BEGIN
 90
        5
170
     1
 91
        0
 92
        0
 62
   257
 93
        1
300
CONTENTFORMAT
  1
CONTENTFORMAT_BEGIN
 90
        0
 91
        0
 92
        4
 93
        0
300

 40
0.0
140
1.0
 94
        2
 62
     0
340
11
144
4.5
309
CONTENTFORMAT_END
171
     1
301
MARGIN
  1
CELLMARGIN_BEGIN
 40
1.5
 40
1.5
 40
1.5
 40
1.5
 40
0.18
 40
0.18
309
CELLMARGIN_END
 94
        6
 95
        1
302
GRIDFORMAT
  1
GRIDFORMAT_BEGIN
 90
        0
 91
        1
 62
     0
 92
       -2
340
0
 93
        0
 40
0.045
309
GRIDFORMAT_END
 95
        2
302
GRIDFORMAT
  1
GRIDFORMAT_BEGIN
 90
        0
 91
        1
 62
     0
 92
       -2
340
0
 93
        0
 40
0.045
309
GRIDFORMAT_END
 95
        4
302
GRIDFORMAT
  1
GRIDFORMAT_BEGIN
 90
        0
 91
        1
 62
     0
 92
       -2
340
0
 93
        0
 40
0.045
309
GRIDFORMAT_END
 95
        8
302
GRIDFORMAT
  1
GRIDFORMAT_BEGIN
 90
        0
 91
        1
 62
     0
 92
       -2
340
0
 93
        0
 40
0.045
309
GRIDFORMAT_END
 95
       16
302
GRIDFORMAT
  1
GRIDFORMAT_BEGIN
 90
        0
 91
        1
 62
     0
 92
       -2
340
0
 93
        0
 40
0.045
309
GRIDFORMAT_END
 95
       32
302
GRIDFORMAT
  1
GRIDFORMAT_BEGIN
 90
        0
 91
        1
 62
     0
 92
       -2
340
0
 93
        0
 40
0.045
309
GRIDFORMAT_END
309
TABLEFORMAT_END
  1
CELLSTYLE_BEGIN
 90
        3
 91
        2
300
_DATA
309
CELLSTYLE_END
  0
XRECORD
  5
26ED
102
{ACAD_REACTORS
330
26EC
102
}
330
26EC
100
AcDbXrecord
280
     1
102
RTVSPost2010Prop28
280
     1
102
RTVSPost2010PropOp28
 70
     1
102
RTVSPost2010Prop29
280
     1
102
RTVSPost2010PropOp29
 70
     1
102
RTVSPost2010Prop30
280
     0
102
RTVSPost2010PropOp30
 70
     1
102
RTVSPost2010Prop31
280
     0
102
RTVSPost2010PropOp31
 70
     1
102
RTVSPost2010Prop32
280
     0
102
RTVSPost2010PropOp32
 70
     1
102
RTVSPost2010Prop33
280
     0
102
RTVSPost2010PropOp33
 70
     1
102
RTVSPost2010Prop34
280
     0
102
RTVSPost2010PropOp34
 70
     1
102
RTVSPost2010Prop35
280
     0
102
RTVSPost2010PropOp35
 70
     1
102
RTVSPost2010Prop36
280
     0
102
RTVSPost2010PropOp36
 70
     1
102
RTVSPost2010Prop37
 90
       50
102
RTVSPost2010PropOp37
 70
     1
102
RTVSPost2010Prop38
140
0.0
102
RTVSPost2010PropOp38
 70
     1
102
RTVSPost2010Prop39
140
1.0
102
RTVSPost2010PropOp39
 70
     1
102
RTVSPost2010Prop40
 90
        0
102
RTVSPost2010PropOp40
 70
     1
102
RTVSPost2010Prop41ColorIndex
 90
       18
102
RTVSPost2010Prop41ColorRGB
 90
        0
102
RTVSPost2010PropOp41
 70
     1
102
RTVSPost2010Prop42
 90
       50
102
RTVSPost2010PropOp42
 70
     1
102
RTVSPost2010Prop43
 90
        3
102
RTVSPost2010PropOp43
 70
     1
102
RTVSPost2010Prop44ColorIndex
 90
        5
102
RTVSPost2010Prop44ColorRGB
 90
      255
102
RTVSPost2010PropOp44
 70
     1
102
RTVSPost2010Prop45
280
     0
102
RTVSPost2010PropOp45
 70
     1
102
RTVSPost2010Prop46
 90
       50
102
RTVSPost2010PropOp46
 70
     1
102
RTVSPost2010Prop47
 90
       50
102
RTVSPost2010PropOp47
 70
     1
102
RTVSPost2010Prop48
 90
       50
102
RTVSPost2010PropOp48
 70
     1
102
RTVSPost2010Prop49
280
     0
102
RTVSPost2010PropOp49
 70
     1
102
RTVSPost2010Prop50
 90
       50
102
RTVSPost2010PropOp50
 70
     1
102
RTVSPost2010Prop51ColorIndex
 90
      256
102
RTVSPost2010Prop51ColorRGB
 90
-16777216
102
RTVSPost2010PropOp51
 70
     0
102
RTVSPost2010Prop52
140
1.0
102
RTVSPost2010PropOp52
 70
     0
102
RTVSPost2010Prop53
 90
        2
102
RTVSPost2010PropOp53
 70
     1
102
RTVSPost2010Prop54
  1
strokes_ogs.tif
102
RTVSPost2010PropOp54
 70
     1
102
RTVSPost2010Prop55
280
     0
102
RTVSPost2010PropOp55
 70
     1
102
RTVSPost2010Prop56
140
1.0
102
RTVSPost2010PropOp56
 70
     1
102
RTVSPost2010Prop57
140
1.0
102
RTVSPost2010PropOp57
 70
     1
102
RTVSPropertyOp0
 70
     1
102
RTVSPropertyOp1
 70
     1
102
RTVSPropertyOp2
 70
     1
102
RTVSPropertyOp3
 70
     1
102
RTVSPropertyOp4
 70
     1
102
RTVSPropertyOp5
 70
     1
102
RTVSPropertyOp6
 70
     1
102
RTVSPropertyOp7
 70
     1
102
RTVSPropertyOp8
 70
     1
102
RTVSPropertyOp9
 70
     1
102
RTVSPropertyOp10
 70
     1
102
RTVSPropertyOp11
 70
     1
102
RTVSPropertyOp12
 70
     1
102
RTVSPropertyOp13
 70
     1
102
RTVSPropertyOp14
 70
     1
102
RTVSPropertyOp15
 70
     1
102
RTVSPropertyOp16
 70
     1
102
RTVSPropertyOp17
 70
     1
102
RTVSPropertyOp18
 70
     1
102
RTVSPropertyOp19
 70
     1
102
RTVSPropertyOp20
 70
     1
102
RTVSPropertyOp21
 70
     1
102
RTVSPropertyOp22
 70
     1
102
RTVSPropertyOp23
 70
     1
102
RTVSPropertyOp24
 70
     1
102
RTVSPropertyOp25
 70
     1
102
RTVSPropertyOp26
 70
     1
102
RTVSPropertyOp27
 70
     1
102
RTVSPropertyOp28
 70
     1
102
RTVSPropertyOp29
 70
     1
102
RTVSPropertyOp30
 70
     1
102
RTVSPropertyOp31
 70
     1
102
RTVSPropertyOp32
 70
     1
102
RTVSPropertyOp33
 70
     1
102
RTVSPropertyOp34
 70
     1
102
RTVSPropertyOp35
 70
     1
102
RTVSPropertyOp36
 70
     1
102
RTVSPropertyOp37
 70
     1
102
RTVSPropertyOp38
 70
     1
102
RTVSPropertyOp39
 70
     1
102
RTVSPropertyOp40
 70
     1
102
RTVSPropertyOp41
 70
     1
102
RTVSPropertyOp42
 70
     1
102
RTVSPropertyOp43
 70
     1
102
RTVSPropertyOp44
 70
     1
102
RTVSPropertyOp45
 70
     1
102
RTVSPropertyOp46
 70
     1
102
RTVSPropertyOp47
 70
     1
102
RTVSPropertyOp48
 70
     1
102
RTVSPropertyOp49
 70
     1
102
RTVSPropertyOp50
 70
     1
102
RTVSPropertyOp51
 70
     0
102
RTVSPropertyOp52
 70
     0
102
RTVSPropertyOp53
 70
     1
102
RTVSPropertyOp54
 70
     1
102
RTVSPropertyOp55
 70
     1
102
RTVSPropertyOp56
 70
     1
102
RTVSPropertyOp57
 70
     1
102
RTVSPropertyOp58
 70
     1
102
RTVSPropertyOp59
 70
     1
102
RTVSPropertyOp60
 70
     1
102
RTVSPropertyOp61
 70
     1
102
RTVSPropertyOp62
 70
     1
  0
XRECORD
  5
26F1
102
{ACAD_REACTORS
330
26F0
102
}
330
26F0
100
AcDbXrecord
280
     1
102
RTVSPost2010Prop28
280
     0
102
RTVSPost2010PropOp28
 70
     1
102
RTVSPost2010Prop29
280
     1
102
RTVSPost2010PropOp29
 70
     1
102
RTVSPost2010Prop30
280
     1
102
RTVSPost2010PropOp30
 70
     1
102
RTVSPost2010Prop31
280
     0
102
RTVSPost2010PropOp31
 70
     1
102
RTVSPost2010Prop32
280
     0
102
RTVSPost2010PropOp32
 70
     1
102
RTVSPost2010Prop33
280
     0
102
RTVSPost2010PropOp33
 70
     1
102
RTVSPost2010Prop34
280
     0
102
RTVSPost2010PropOp34
 70
     1
102
RTVSPost2010Prop35
280
     0
102
RTVSPost2010PropOp35
 70
     1
102
RTVSPost2010Prop36
280
     0
102
RTVSPost2010PropOp36
 70
     1
102
RTVSPost2010Prop37
 90
       50
102
RTVSPost2010PropOp37
 70
     1
102
RTVSPost2010Prop38
140
0.0
102
RTVSPost2010PropOp38
 70
     1
102
RTVSPost2010Prop39
140
1.0
102
RTVSPost2010PropOp39
 70
     1
102
RTVSPost2010Prop40
 90
        0
102
RTVSPost2010PropOp40
 70
     1
102
RTVSPost2010Prop41ColorIndex
 90
       18
102
RTVSPost2010Prop41ColorRGB
 90
        0
102
RTVSPost2010PropOp41
 70
     1
102
RTVSPost2010Prop42
 90
       50
102
RTVSPost2010PropOp42
 70
     1
102
RTVSPost2010Prop43
 90
        3
102
RTVSPost2010PropOp43
 70
     1
102
RTVSPost2010Prop44ColorIndex
 90
        5
102
RTVSPost2010Prop44ColorRGB
 90
      255
102
RTVSPost2010PropOp44
 70
     1
102
RTVSPost2010Prop45
280
     0
102
RTVSPost2010PropOp45
 70
     1
102
RTVSPost2010Prop46
 90
       50
102
RTVSPost2010PropOp46
 70
     1
102
RTVSPost2010Prop47
 90
       50
102
RTVSPost2010PropOp47
 70
     1
102
RTVSPost2010Prop48
 90
       50
102
RTVSPost2010PropOp48
 70
     1
102
RTVSPost2010Prop49
280
     0
102
RTVSPost2010PropOp49
 70
     1
102
RTVSPost2010Prop50
 90
       50
102
RTVSPost2010PropOp50
 70
     1
102
RTVSPost2010Prop51ColorIndex
 90
      256
102
RTVSPost2010Prop51ColorRGB
 90
-16777216
102
RTVSPost2010PropOp51
 70
     0
102
RTVSPost2010Prop52
140
1.0
102
RTVSPost2010PropOp52
 70
     0
102
RTVSPost2010Prop53
 90
        2
102
RTVSPost2010PropOp53
 70
     1
102
RTVSPost2010Prop54
  1
strokes_ogs.tif
102
RTVSPost2010PropOp54
 70
     1
102
RTVSPost2010Prop55
280
     0
102
RTVSPost2010PropOp55
 70
     1
102
RTVSPost2010Prop56
140
1.0
102
RTVSPost2010PropOp56
 70
     1
102
RTVSPost2010Prop57
140
1.0
102
RTVSPost2010PropOp57
 70
     1
102
RTVSPropertyOp0
 70
     1
102
RTVSPropertyOp1
 70
     1
102
RTVSPropertyOp2
 70
     1
102
RTVSPropertyOp3
 70
     1
102
RTVSPropertyOp4
 70
     1
102
RTVSPropertyOp5
 70
     1
102
RTVSPropertyOp6
 70
     1
102
RTVSPropertyOp7
 70
     1
102
RTVSPropertyOp8
 70
     1
102
RTVSPropertyOp9
 70
     1
102
RTVSPropertyOp10
 70
     1
102
RTVSPropertyOp11
 70
     1
102
RTVSPropertyOp12
 70
     1
102
RTVSPropertyOp13
 70
     1
102
RTVSPropertyOp14
 70
     1
102
RTVSPropertyOp15
 70
     1
102
RTVSPropertyOp16
 70
     1
102
RTVSPropertyOp17
 70
     1
102
RTVSPropertyOp18
 70
     1
102
RTVSPropertyOp19
 70
     1
102
RTVSPropertyOp20
 70
     1
102
RTVSPropertyOp21
 70
     1
102
RTVSPropertyOp22
 70
     1
102
RTVSPropertyOp23
 70
     1
102
RTVSPropertyOp24
 70
     1
102
RTVSPropertyOp25
 70
     1
102
RTVSPropertyOp26
 70
     1
102
RTVSPropertyOp27
 70
     1
102
RTVSPropertyOp28
 70
     1
102
RTVSPropertyOp29
 70
     1
102
RTVSPropertyOp30
 70
     1
102
RTVSPropertyOp31
 70
     1
102
RTVSPropertyOp32
 70
     1
102
RTVSPropertyOp33
 70
     1
102
RTVSPropertyOp34
 70
     1
102
RTVSPropertyOp35
 70
     1
102
RTVSPropertyOp36
 70
     1
102
RTVSPropertyOp37
 70
     1
102
RTVSPropertyOp38
 70
     1
102
RTVSPropertyOp39
 70
     1
102
RTVSPropertyOp40
 70
     1
102
RTVSPropertyOp41
 70
     1
102
RTVSPropertyOp42
 70
     1
102
RTVSPropertyOp43
 70
     1
102
RTVSPropertyOp44
 70
     1
102
RTVSPropertyOp45
 70
     1
102
RTVSPropertyOp46
 70
     1
102
RTVSPropertyOp47
 70
     1
102
RTVSPropertyOp48
 70
     1
102
RTVSPropertyOp49
 70
     1
102
RTVSPropertyOp50
 70
     1
102
RTVSPropertyOp51
 70
     0
102
RTVSPropertyOp52
 70
     0
102
RTVSPropertyOp53
 70
     1
102
RTVSPropertyOp54
 70
     1
102
RTVSPropertyOp55
 70
     1
102
RTVSPropertyOp56
 70
     1
102
RTVSPropertyOp57
 70
     1
102
RTVSPropertyOp58
 70
     1
102
RTVSPropertyOp59
 70
     1
102
RTVSPropertyOp60
 70
     1
102
RTVSPropertyOp61
 70
     1
102
RTVSPropertyOp62
 70
     1
  0
XRECORD
  5
26EF
102
{ACAD_REACTORS
330
26EE
102
}
330
26EE
100
AcDbXrecord
280
     1
102
RTVSPost2010Prop28
280
     0
102
RTVSPost2010PropOp28
 70
     1
102
RTVSPost2010Prop29
280
     1
102
RTVSPost2010PropOp29
 70
     1
102
RTVSPost2010Prop30
280
     1
102
RTVSPost2010PropOp30
 70
     1
102
RTVSPost2010Prop31
280
     0
102
RTVSPost2010PropOp31
 70
     1
102
RTVSPost2010Prop32
280
     0
102
RTVSPost2010PropOp32
 70
     1
102
RTVSPost2010Prop33
280
     0
102
RTVSPost2010PropOp33
 70
     1
102
RTVSPost2010Prop34
280
     0
102
RTVSPost2010PropOp34
 70
     1
102
RTVSPost2010Prop35
280
     0
102
RTVSPost2010PropOp35
 70
     1
102
RTVSPost2010Prop36
280
     0
102
RTVSPost2010PropOp36
 70
     1
102
RTVSPost2010Prop37
 90
       50
102
RTVSPost2010PropOp37
 70
     1
102
RTVSPost2010Prop38
140
0.0
102
RTVSPost2010PropOp38
 70
     1
102
RTVSPost2010Prop39
140
1.0
102
RTVSPost2010PropOp39
 70
     1
102
RTVSPost2010Prop40
 90
        0
102
RTVSPost2010PropOp40
 70
     1
102
RTVSPost2010Prop41ColorIndex
 90
       18
102
RTVSPost2010Prop41ColorRGB
 90
        0
102
RTVSPost2010PropOp41
 70
     1
102
RTVSPost2010Prop42
 90
       50
102
RTVSPost2010PropOp42
 70
     1
102
RTVSPost2010Prop43
 90
        3
102
RTVSPost2010PropOp43
 70
     1
102
RTVSPost2010Prop44ColorIndex
 90
        5
102
RTVSPost2010Prop44ColorRGB
 90
      255
102
RTVSPost2010PropOp44
 70
     1
102
RTVSPost2010Prop45
280
     0
102
RTVSPost2010PropOp45
 70
     1
102
RTVSPost2010Prop46
 90
       50
102
RTVSPost2010PropOp46
 70
     1
102
RTVSPost2010Prop47
 90
       50
102
RTVSPost2010PropOp47
 70
     1
102
RTVSPost2010Prop48
 90
       50
102
RTVSPost2010PropOp48
 70
     1
102
RTVSPost2010Prop49
280
     0
102
RTVSPost2010PropOp49
 70
     1
102
RTVSPost2010Prop50
 90
       50
102
RTVSPost2010PropOp50
 70
     1
102
RTVSPost2010Prop51ColorIndex
 90
      256
102
RTVSPost2010Prop51ColorRGB
 90
-16777216
102
RTVSPost2010PropOp51
 70
     0
102
RTVSPost2010Prop52
140
1.0
102
RTVSPost2010PropOp52
 70
     0
102
RTVSPost2010Prop53
 90
        2
102
RTVSPost2010PropOp53
 70
     1
102
RTVSPost2010Prop54
  1
strokes_ogs.tif
102
RTVSPost2010PropOp54
 70
     1
102
RTVSPost2010Prop55
280
     0
102
RTVSPost2010PropOp55
 70
     1
102
RTVSPost2010Prop56
140
1.0
102
RTVSPost2010PropOp56
 70
     1
102
RTVSPost2010Prop57
140
1.0
102
RTVSPost2010PropOp57
 70
     1
102
RTVSPropertyOp0
 70
     1
102
RTVSPropertyOp1
 70
     1
102
RTVSPropertyOp2
 70
     1
102
RTVSPropertyOp3
 70
     1
102
RTVSPropertyOp4
 70
     1
102
RTVSPropertyOp5
 70
     1
102
RTVSPropertyOp6
 70
     1
102
RTVSPropertyOp7
 70
     1
102
RTVSPropertyOp8
 70
     1
102
RTVSPropertyOp9
 70
     1
102
RTVSPropertyOp10
 70
     1
102
RTVSPropertyOp11
 70
     1
102
RTVSPropertyOp12
 70
     1
102
RTVSPropertyOp13
 70
     1
102
RTVSPropertyOp14
 70
     1
102
RTVSPropertyOp15
 70
     1
102
RTVSPropertyOp16
 70
     1
102
RTVSPropertyOp17
 70
     1
102
RTVSPropertyOp18
 70
     1
102
RTVSPropertyOp19
 70
     1
102
RTVSPropertyOp20
 70
     1
102
RTVSPropertyOp21
 70
     1
102
RTVSPropertyOp22
 70
     1
102
RTVSPropertyOp23
 70
     1
102
RTVSPropertyOp24
 70
     1
102
RTVSPropertyOp25
 70
     1
102
RTVSPropertyOp26
 70
     1
102
RTVSPropertyOp27
 70
     1
102
RTVSPropertyOp28
 70
     1
102
RTVSPropertyOp29
 70
     1
102
RTVSPropertyOp30
 70
     1
102
RTVSPropertyOp31
 70
     1
102
RTVSPropertyOp32
 70
     1
102
RTVSPropertyOp33
 70
     1
102
RTVSPropertyOp34
 70
     1
102
RTVSPropertyOp35
 70
     1
102
RTVSPropertyOp36
 70
     1
102
RTVSPropertyOp37
 70
     1
102
RTVSPropertyOp38
 70
     1
102
RTVSPropertyOp39
 70
     1
102
RTVSPropertyOp40
 70
     1
102
RTVSPropertyOp41
 70
     1
102
RTVSPropertyOp42
 70
     1
102
RTVSPropertyOp43
 70
     1
102
RTVSPropertyOp44
 70
     1
102
RTVSPropertyOp45
 70
     1
102
RTVSPropertyOp46
 70
     1
102
RTVSPropertyOp47
 70
     1
102
RTVSPropertyOp48
 70
     1
102
RTVSPropertyOp49
 70
     1
102
RTVSPropertyOp50
 70
     1
102
RTVSPropertyOp51
 70
     0
102
RTVSPropertyOp52
 70
     0
102
RTVSPropertyOp53
 70
     1
102
RTVSPropertyOp54
 70
     1
102
RTVSPropertyOp55
 70
     1
102
RTVSPropertyOp56
 70
     1
102
RTVSPropertyOp57
 70
     1
102
RTVSPropertyOp58
 70
     1
102
RTVSPropertyOp59
 70
     1
102
RTVSPropertyOp60
 70
     1
102
RTVSPropertyOp61
 70
     1
102
RTVSPropertyOp62
 70
     1
  0
XRECORD
  5
26EB
102
{ACAD_REACTORS
330
26EA
102
}
330
26EA
100
AcDbXrecord
280
     1
102
RTVSPost2010Prop28
280
     0
102
RTVSPost2010PropOp28
 70
     1
102
RTVSPost2010Prop29
280
     1
102
RTVSPost2010PropOp29
 70
     1
102
RTVSPost2010Prop30
280
     1
102
RTVSPost2010PropOp30
 70
     1
102
RTVSPost2010Prop31
280
     0
102
RTVSPost2010PropOp31
 70
     1
102
RTVSPost2010Prop32
280
     0
102
RTVSPost2010PropOp32
 70
     1
102
RTVSPost2010Prop33
280
     0
102
RTVSPost2010PropOp33
 70
     1
102
RTVSPost2010Prop34
280
     0
102
RTVSPost2010PropOp34
 70
     1
102
RTVSPost2010Prop35
280
     0
102
RTVSPost2010PropOp35
 70
     1
102
RTVSPost2010Prop36
280
     0
102
RTVSPost2010PropOp36
 70
     1
102
RTVSPost2010Prop37
 90
       50
102
RTVSPost2010PropOp37
 70
     1
102
RTVSPost2010Prop38
140
0.0
102
RTVSPost2010PropOp38
 70
     1
102
RTVSPost2010Prop39
140
1.0
102
RTVSPost2010PropOp39
 70
     1
102
RTVSPost2010Prop40
 90
        0
102
RTVSPost2010PropOp40
 70
     1
102
RTVSPost2010Prop41ColorIndex
 90
       18
102
RTVSPost2010Prop41ColorRGB
 90
        0
102
RTVSPost2010PropOp41
 70
     1
102
RTVSPost2010Prop42
 90
       50
102
RTVSPost2010PropOp42
 70
     1
102
RTVSPost2010Prop43
 90
        3
102
RTVSPost2010PropOp43
 70
     1
102
RTVSPost2010Prop44ColorIndex
 90
        5
102
RTVSPost2010Prop44ColorRGB
 90
      255
102
RTVSPost2010PropOp44
 70
     1
102
RTVSPost2010Prop45
280
     0
102
RTVSPost2010PropOp45
 70
     1
102
RTVSPost2010Prop46
 90
       50
102
RTVSPost2010PropOp46
 70
     1
102
RTVSPost2010Prop47
 90
       50
102
RTVSPost2010PropOp47
 70
     1
102
RTVSPost2010Prop48
 90
       50
102
RTVSPost2010PropOp48
 70
     1
102
RTVSPost2010Prop49
280
     0
102
RTVSPost2010PropOp49
 70
     1
102
RTVSPost2010Prop50
 90
       50
102
RTVSPost2010PropOp50
 70
     1
102
RTVSPost2010Prop51ColorIndex
 90
      256
102
RTVSPost2010Prop51ColorRGB
 90
-16777216
102
RTVSPost2010PropOp51
 70
     0
102
RTVSPost2010Prop52
140
1.0
102
RTVSPost2010PropOp52
 70
     0
102
RTVSPost2010Prop53
 90
        2
102
RTVSPost2010PropOp53
 70
     1
102
RTVSPost2010Prop54
  1
strokes_ogs.tif
102
RTVSPost2010PropOp54
 70
     1
102
RTVSPost2010Prop55
280
     0
102
RTVSPost2010PropOp55
 70
     1
102
RTVSPost2010Prop56
140
1.0
102
RTVSPost2010PropOp56
 70
     1
102
RTVSPost2010Prop57
140
1.0
102
RTVSPost2010PropOp57
 70
     1
102
RTVSPropertyOp0
 70
     1
102
RTVSPropertyOp1
 70
     1
102
RTVSPropertyOp2
 70
     1
102
RTVSPropertyOp3
 70
     1
102
RTVSPropertyOp4
 70
     1
102
RTVSPropertyOp5
 70
     1
102
RTVSPropertyOp6
 70
     1
102
RTVSPropertyOp7
 70
     1
102
RTVSPropertyOp8
 70
     1
102
RTVSPropertyOp9
 70
     1
102
RTVSPropertyOp10
 70
     1
102
RTVSPropertyOp11
 70
     1
102
RTVSPropertyOp12
 70
     1
102
RTVSPropertyOp13
 70
     1
102
RTVSPropertyOp14
 70
     1
102
RTVSPropertyOp15
 70
     1
102
RTVSPropertyOp16
 70
     1
102
RTVSPropertyOp17
 70
     1
102
RTVSPropertyOp18
 70
     1
102
RTVSPropertyOp19
 70
     1
102
RTVSPropertyOp20
 70
     1
102
RTVSPropertyOp21
 70
     1
102
RTVSPropertyOp22
 70
     1
102
RTVSPropertyOp23
 70
     1
102
RTVSPropertyOp24
 70
     1
102
RTVSPropertyOp25
 70
     1
102
RTVSPropertyOp26
 70
     1
102
RTVSPropertyOp27
 70
     1
102
RTVSPropertyOp28
 70
     1
102
RTVSPropertyOp29
 70
     1
102
RTVSPropertyOp30
 70
     1
102
RTVSPropertyOp31
 70
     1
102
RTVSPropertyOp32
 70
     1
102
RTVSPropertyOp33
 70
     1
102
RTVSPropertyOp34
 70
     1
102
RTVSPropertyOp35
 70
     1
102
RTVSPropertyOp36
 70
     1
102
RTVSPropertyOp37
 70
     1
102
RTVSPropertyOp38
 70
     1
102
RTVSPropertyOp39
 70
     1
102
RTVSPropertyOp40
 70
     1
102
RTVSPropertyOp41
 70
     1
102
RTVSPropertyOp42
 70
     1
102
RTVSPropertyOp43
 70
     1
102
RTVSPropertyOp44
 70
     1
102
RTVSPropertyOp45
 70
     1
102
RTVSPropertyOp46
 70
     1
102
RTVSPropertyOp47
 70
     1
102
RTVSPropertyOp48
 70
     1
102
RTVSPropertyOp49
 70
     1
102
RTVSPropertyOp50
 70
     1
102
RTVSPropertyOp51
 70
     0
102
RTVSPropertyOp52
 70
     0
102
RTVSPropertyOp53
 70
     1
102
RTVSPropertyOp54
 70
     1
102
RTVSPropertyOp55
 70
     1
102
RTVSPropertyOp56
 70
     1
102
RTVSPropertyOp57
 70
     1
102
RTVSPropertyOp58
 70
     1
102
RTVSPropertyOp59
 70
     1
102
RTVSPropertyOp60
 70
     1
102
RTVSPropertyOp61
 70
     1
102
RTVSPropertyOp62
 70
     1
  0
XRECORD
  5
26F9
102
{ACAD_REACTORS
330
26F8
102
}
330
26F8
100
AcDbXrecord
280
     1
102
RTVSPost2010Prop28
280
     0
102
RTVSPost2010PropOp28
 70
     1
102
RTVSPost2010Prop29
280
     1
102
RTVSPost2010PropOp29
 70
     1
102
RTVSPost2010Prop30
280
     1
102
RTVSPost2010PropOp30
 70
     1
102
RTVSPost2010Prop31
280
     0
102
RTVSPost2010PropOp31
 70
     1
102
RTVSPost2010Prop32
280
     0
102
RTVSPost2010PropOp32
 70
     1
102
RTVSPost2010Prop33
280
     0
102
RTVSPost2010PropOp33
 70
     1
102
RTVSPost2010Prop34
280
     0
102
RTVSPost2010PropOp34
 70
     1
102
RTVSPost2010Prop35
280
     0
102
RTVSPost2010PropOp35
 70
     1
102
RTVSPost2010Prop36
280
     0
102
RTVSPost2010PropOp36
 70
     1
102
RTVSPost2010Prop37
 90
       50
102
RTVSPost2010PropOp37
 70
     1
102
RTVSPost2010Prop38
140
0.0
102
RTVSPost2010PropOp38
 70
     1
102
RTVSPost2010Prop39
140
1.0
102
RTVSPost2010PropOp39
 70
     1
102
RTVSPost2010Prop40
 90
        0
102
RTVSPost2010PropOp40
 70
     1
102
RTVSPost2010Prop41ColorIndex
 90
       18
102
RTVSPost2010Prop41ColorRGB
 90
        0
102
RTVSPost2010PropOp41
 70
     1
102
RTVSPost2010Prop42
 90
       50
102
RTVSPost2010PropOp42
 70
     1
102
RTVSPost2010Prop43
 90
        3
102
RTVSPost2010PropOp43
 70
     1
102
RTVSPost2010Prop44ColorIndex
 90
        5
102
RTVSPost2010Prop44ColorRGB
 90
      255
102
RTVSPost2010PropOp44
 70
     1
102
RTVSPost2010Prop45
280
     0
102
RTVSPost2010PropOp45
 70
     1
102
RTVSPost2010Prop46
 90
       50
102
RTVSPost2010PropOp46
 70
     1
102
RTVSPost2010Prop47
 90
       50
102
RTVSPost2010PropOp47
 70
     1
102
RTVSPost2010Prop48
 90
       50
102
RTVSPost2010PropOp48
 70
     1
102
RTVSPost2010Prop49
280
     0
102
RTVSPost2010PropOp49
 70
     1
102
RTVSPost2010Prop50
 90
       50
102
RTVSPost2010PropOp50
 70
     1
102
RTVSPost2010Prop51ColorIndex
 90
      256
102
RTVSPost2010Prop51ColorRGB
 90
-16777216
102
RTVSPost2010PropOp51
 70
     0
102
RTVSPost2010Prop52
140
1.0
102
RTVSPost2010PropOp52
 70
     0
102
RTVSPost2010Prop53
 90
        2
102
RTVSPost2010PropOp53
 70
     1
102
RTVSPost2010Prop54
  1
strokes_ogs.tif
102
RTVSPost2010PropOp54
 70
     1
102
RTVSPost2010Prop55
280
     0
102
RTVSPost2010PropOp55
 70
     1
102
RTVSPost2010Prop56
140
1.0
102
RTVSPost2010PropOp56
 70
     1
102
RTVSPost2010Prop57
140
1.0
102
RTVSPost2010PropOp57
 70
     1
102
RTVSPropertyOp0
 70
     1
102
RTVSPropertyOp1
 70
     1
102
RTVSPropertyOp2
 70
     1
102
RTVSPropertyOp3
 70
     1
102
RTVSPropertyOp4
 70
     1
102
RTVSPropertyOp5
 70
     1
102
RTVSPropertyOp6
 70
     1
102
RTVSPropertyOp7
 70
     1
102
RTVSPropertyOp8
 70
     1
102
RTVSPropertyOp9
 70
     1
102
RTVSPropertyOp10
 70
     1
102
RTVSPropertyOp11
 70
     1
102
RTVSPropertyOp12
 70
     1
102
RTVSPropertyOp13
 70
     1
102
RTVSPropertyOp14
 70
     1
102
RTVSPropertyOp15
 70
     1
102
RTVSPropertyOp16
 70
     1
102
RTVSPropertyOp17
 70
     1
102
RTVSPropertyOp18
 70
     1
102
RTVSPropertyOp19
 70
     1
102
RTVSPropertyOp20
 70
     1
102
RTVSPropertyOp21
 70
     1
102
RTVSPropertyOp22
 70
     1
102
RTVSPropertyOp23
 70
     1
102
RTVSPropertyOp24
 70
     1
102
RTVSPropertyOp25
 70
     1
102
RTVSPropertyOp26
 70
     1
102
RTVSPropertyOp27
 70
     1
102
RTVSPropertyOp28
 70
     1
102
RTVSPropertyOp29
 70
     1
102
RTVSPropertyOp30
 70
     1
102
RTVSPropertyOp31
 70
     1
102
RTVSPropertyOp32
 70
     1
102
RTVSPropertyOp33
 70
     1
102
RTVSPropertyOp34
 70
     1
102
RTVSPropertyOp35
 70
     1
102
RTVSPropertyOp36
 70
     1
102
RTVSPropertyOp37
 70
     1
102
RTVSPropertyOp38
 70
     1
102
RTVSPropertyOp39
 70
     1
102
RTVSPropertyOp40
 70
     1
102
RTVSPropertyOp41
 70
     1
102
RTVSPropertyOp42
 70
     1
102
RTVSPropertyOp43
 70
     1
102
RTVSPropertyOp44
 70
     1
102
RTVSPropertyOp45
 70
     1
102
RTVSPropertyOp46
 70
     1
102
RTVSPropertyOp47
 70
     1
102
RTVSPropertyOp48
 70
     1
102
RTVSPropertyOp49
 70
     1
102
RTVSPropertyOp50
 70
     1
102
RTVSPropertyOp51
 70
     0
102
RTVSPropertyOp52
 70
     0
102
RTVSPropertyOp53
 70
     1
102
RTVSPropertyOp54
 70
     1
102
RTVSPropertyOp55
 70
     1
102
RTVSPropertyOp56
 70
     1
102
RTVSPropertyOp57
 70
     1
102
RTVSPropertyOp58
 70
     1
102
RTVSPropertyOp59
 70
     1
102
RTVSPropertyOp60
 70
     1
102
RTVSPropertyOp61
 70
     1
102
RTVSPropertyOp62
 70
     1
  0
XRECORD
  5
2701
102
{ACAD_REACTORS
330
2700
102
}
330
2700
100
AcDbXrecord
280
     1
102
RTVSPost2010Prop28
280
     0
102
RTVSPost2010PropOp28
 70
     1
102
RTVSPost2010Prop29
280
     1
102
RTVSPost2010PropOp29
 70
     1
102
RTVSPost2010Prop30
280
     1
102
RTVSPost2010PropOp30
 70
     1
102
RTVSPost2010Prop31
280
     0
102
RTVSPost2010PropOp31
 70
     1
102
RTVSPost2010Prop32
280
     0
102
RTVSPost2010PropOp32
 70
     1
102
RTVSPost2010Prop33
280
     0
102
RTVSPost2010PropOp33
 70
     1
102
RTVSPost2010Prop34
280
     0
102
RTVSPost2010PropOp34
 70
     1
102
RTVSPost2010Prop35
280
     0
102
RTVSPost2010PropOp35
 70
     1
102
RTVSPost2010Prop36
280
     0
102
RTVSPost2010PropOp36
 70
     1
102
RTVSPost2010Prop37
 90
       50
102
RTVSPost2010PropOp37
 70
     1
102
RTVSPost2010Prop38
140
0.0
102
RTVSPost2010PropOp38
 70
     1
102
RTVSPost2010Prop39
140
1.0
102
RTVSPost2010PropOp39
 70
     1
102
RTVSPost2010Prop40
 90
        0
102
RTVSPost2010PropOp40
 70
     1
102
RTVSPost2010Prop41ColorIndex
 90
       18
102
RTVSPost2010Prop41ColorRGB
 90
        0
102
RTVSPost2010PropOp41
 70
     1
102
RTVSPost2010Prop42
 90
       50
102
RTVSPost2010PropOp42
 70
     1
102
RTVSPost2010Prop43
 90
        3
102
RTVSPost2010PropOp43
 70
     1
102
RTVSPost2010Prop44ColorIndex
 90
        5
102
RTVSPost2010Prop44ColorRGB
 90
      255
102
RTVSPost2010PropOp44
 70
     1
102
RTVSPost2010Prop45
280
     0
102
RTVSPost2010PropOp45
 70
     1
102
RTVSPost2010Prop46
 90
       50
102
RTVSPost2010PropOp46
 70
     1
102
RTVSPost2010Prop47
 90
       50
102
RTVSPost2010PropOp47
 70
     1
102
RTVSPost2010Prop48
 90
       50
102
RTVSPost2010PropOp48
 70
     1
102
RTVSPost2010Prop49
280
     0
102
RTVSPost2010PropOp49
 70
     1
102
RTVSPost2010Prop50
 90
       50
102
RTVSPost2010PropOp50
 70
     1
102
RTVSPost2010Prop51ColorIndex
 90
      256
102
RTVSPost2010Prop51ColorRGB
 90
-16777216
102
RTVSPost2010PropOp51
 70
     0
102
RTVSPost2010Prop52
140
1.0
102
RTVSPost2010PropOp52
 70
     0
102
RTVSPost2010Prop53
 90
        2
102
RTVSPost2010PropOp53
 70
     1
102
RTVSPost2010Prop54
  1
strokes_ogs.tif
102
RTVSPost2010PropOp54
 70
     1
102
RTVSPost2010Prop55
280
     0
102
RTVSPost2010PropOp55
 70
     1
102
RTVSPost2010Prop56
140
1.0
102
RTVSPost2010PropOp56
 70
     1
102
RTVSPost2010Prop57
140
1.0
102
RTVSPost2010PropOp57
 70
     1
102
RTVSPropertyOp0
 70
     1
102
RTVSPropertyOp1
 70
     1
102
RTVSPropertyOp2
 70
     1
102
RTVSPropertyOp3
 70
     1
102
RTVSPropertyOp4
 70
     1
102
RTVSPropertyOp5
 70
     1
102
RTVSPropertyOp6
 70
     1
102
RTVSPropertyOp7
 70
     1
102
RTVSPropertyOp8
 70
     1
102
RTVSPropertyOp9
 70
     1
102
RTVSPropertyOp10
 70
     1
102
RTVSPropertyOp11
 70
     1
102
RTVSPropertyOp12
 70
     1
102
RTVSPropertyOp13
 70
     1
102
RTVSPropertyOp14
 70
     1
102
RTVSPropertyOp15
 70
     1
102
RTVSPropertyOp16
 70
     1
102
RTVSPropertyOp17
 70
     1
102
RTVSPropertyOp18
 70
     1
102
RTVSPropertyOp19
 70
     1
102
RTVSPropertyOp20
 70
     1
102
RTVSPropertyOp21
 70
     1
102
RTVSPropertyOp22
 70
     1
102
RTVSPropertyOp23
 70
     1
102
RTVSPropertyOp24
 70
     1
102
RTVSPropertyOp25
 70
     1
102
RTVSPropertyOp26
 70
     1
102
RTVSPropertyOp27
 70
     1
102
RTVSPropertyOp28
 70
     1
102
RTVSPropertyOp29
 70
     1
102
RTVSPropertyOp30
 70
     1
102
RTVSPropertyOp31
 70
     1
102
RTVSPropertyOp32
 70
     1
102
RTVSPropertyOp33
 70
     1
102
RTVSPropertyOp34
 70
     1
102
RTVSPropertyOp35
 70
     1
102
RTVSPropertyOp36
 70
     1
102
RTVSPropertyOp37
 70
     1
102
RTVSPropertyOp38
 70
     1
102
RTVSPropertyOp39
 70
     1
102
RTVSPropertyOp40
 70
     1
102
RTVSPropertyOp41
 70
     1
102
RTVSPropertyOp42
 70
     1
102
RTVSPropertyOp43
 70
     1
102
RTVSPropertyOp44
 70
     1
102
RTVSPropertyOp45
 70
     1
102
RTVSPropertyOp46
 70
     1
102
RTVSPropertyOp47
 70
     1
102
RTVSPropertyOp48
 70
     1
102
RTVSPropertyOp49
 70
     1
102
RTVSPropertyOp50
 70
     1
102
RTVSPropertyOp51
 70
     0
102
RTVSPropertyOp52
 70
     0
102
RTVSPropertyOp53
 70
     1
102
RTVSPropertyOp54
 70
     1
102
RTVSPropertyOp55
 70
     1
102
RTVSPropertyOp56
 70
     1
102
RTVSPropertyOp57
 70
     1
102
RTVSPropertyOp58
 70
     1
102
RTVSPropertyOp59
 70
     1
102
RTVSPropertyOp60
 70
     1
102
RTVSPropertyOp61
 70
     1
102
RTVSPropertyOp62
 70
     1
  0
XRECORD
  5
26F3
102
{ACAD_REACTORS
330
26F2
102
}
330
26F2
100
AcDbXrecord
280
     1
102
RTVSPost2010Prop28
280
     0
102
RTVSPost2010PropOp28
 70
     1
102
RTVSPost2010Prop29
280
     1
102
RTVSPost2010PropOp29
 70
     1
102
RTVSPost2010Prop30
280
     1
102
RTVSPost2010PropOp30
 70
     1
102
RTVSPost2010Prop31
280
     0
102
RTVSPost2010PropOp31
 70
     1
102
RTVSPost2010Prop32
280
     0
102
RTVSPost2010PropOp32
 70
     1
102
RTVSPost2010Prop33
280
     0
102
RTVSPost2010PropOp33
 70
     1
102
RTVSPost2010Prop34
280
     0
102
RTVSPost2010PropOp34
 70
     1
102
RTVSPost2010Prop35
280
     0
102
RTVSPost2010PropOp35
 70
     1
102
RTVSPost2010Prop36
280
     0
102
RTVSPost2010PropOp36
 70
     1
102
RTVSPost2010Prop37
 90
       50
102
RTVSPost2010PropOp37
 70
     1
102
RTVSPost2010Prop38
140
0.0
102
RTVSPost2010PropOp38
 70
     1
102
RTVSPost2010Prop39
140
1.0
102
RTVSPost2010PropOp39
 70
     1
102
RTVSPost2010Prop40
 90
        0
102
RTVSPost2010PropOp40
 70
     1
102
RTVSPost2010Prop41ColorIndex
 90
       18
102
RTVSPost2010Prop41ColorRGB
 90
        0
102
RTVSPost2010PropOp41
 70
     1
102
RTVSPost2010Prop42
 90
       50
102
RTVSPost2010PropOp42
 70
     1
102
RTVSPost2010Prop43
 90
        3
102
RTVSPost2010PropOp43
 70
     1
102
RTVSPost2010Prop44ColorIndex
 90
        5
102
RTVSPost2010Prop44ColorRGB
 90
      255
102
RTVSPost2010PropOp44
 70
     1
102
RTVSPost2010Prop45
280
     0
102
RTVSPost2010PropOp45
 70
     1
102
RTVSPost2010Prop46
 90
       50
102
RTVSPost2010PropOp46
 70
     1
102
RTVSPost2010Prop47
 90
       50
102
RTVSPost2010PropOp47
 70
     1
102
RTVSPost2010Prop48
 90
       50
102
RTVSPost2010PropOp48
 70
     1
102
RTVSPost2010Prop49
280
     0
102
RTVSPost2010PropOp49
 70
     1
102
RTVSPost2010Prop50
 90
       50
102
RTVSPost2010PropOp50
 70
     1
102
RTVSPost2010Prop51ColorIndex
 90
      256
102
RTVSPost2010Prop51ColorRGB
 90
-16777216
102
RTVSPost2010PropOp51
 70
     0
102
RTVSPost2010Prop52
140
1.0
102
RTVSPost2010PropOp52
 70
     0
102
RTVSPost2010Prop53
 90
        2
102
RTVSPost2010PropOp53
 70
     1
102
RTVSPost2010Prop54
  1
strokes_ogs.tif
102
RTVSPost2010PropOp54
 70
     1
102
RTVSPost2010Prop55
280
     0
102
RTVSPost2010PropOp55
 70
     1
102
RTVSPost2010Prop56
140
1.0
102
RTVSPost2010PropOp56
 70
     1
102
RTVSPost2010Prop57
140
1.0
102
RTVSPost2010PropOp57
 70
     1
102
RTVSPropertyOp0
 70
     1
102
RTVSPropertyOp1
 70
     1
102
RTVSPropertyOp2
 70
     1
102
RTVSPropertyOp3
 70
     1
102
RTVSPropertyOp4
 70
     1
102
RTVSPropertyOp5
 70
     1
102
RTVSPropertyOp6
 70
     1
102
RTVSPropertyOp7
 70
     1
102
RTVSPropertyOp8
 70
     1
102
RTVSPropertyOp9
 70
     1
102
RTVSPropertyOp10
 70
     1
102
RTVSPropertyOp11
 70
     1
102
RTVSPropertyOp12
 70
     1
102
RTVSPropertyOp13
 70
     1
102
RTVSPropertyOp14
 70
     1
102
RTVSPropertyOp15
 70
     1
102
RTVSPropertyOp16
 70
     1
102
RTVSPropertyOp17
 70
     1
102
RTVSPropertyOp18
 70
     1
102
RTVSPropertyOp19
 70
     1
102
RTVSPropertyOp20
 70
     1
102
RTVSPropertyOp21
 70
     1
102
RTVSPropertyOp22
 70
     1
102
RTVSPropertyOp23
 70
     1
102
RTVSPropertyOp24
 70
     1
102
RTVSPropertyOp25
 70
     1
102
RTVSPropertyOp26
 70
     1
102
RTVSPropertyOp27
 70
     1
102
RTVSPropertyOp28
 70
     1
102
RTVSPropertyOp29
 70
     1
102
RTVSPropertyOp30
 70
     1
102
RTVSPropertyOp31
 70
     1
102
RTVSPropertyOp32
 70
     1
102
RTVSPropertyOp33
 70
     1
102
RTVSPropertyOp34
 70
     1
102
RTVSPropertyOp35
 70
     1
102
RTVSPropertyOp36
 70
     1
102
RTVSPropertyOp37
 70
     1
102
RTVSPropertyOp38
 70
     1
102
RTVSPropertyOp39
 70
     1
102
RTVSPropertyOp40
 70
     1
102
RTVSPropertyOp41
 70
     1
102
RTVSPropertyOp42
 70
     1
102
RTVSPropertyOp43
 70
     1
102
RTVSPropertyOp44
 70
     1
102
RTVSPropertyOp45
 70
     1
102
RTVSPropertyOp46
 70
     1
102
RTVSPropertyOp47
 70
     1
102
RTVSPropertyOp48
 70
     1
102
RTVSPropertyOp49
 70
     1
102
RTVSPropertyOp50
 70
     1
102
RTVSPropertyOp51
 70
     0
102
RTVSPropertyOp52
 70
     0
102
RTVSPropertyOp53
 70
     1
102
RTVSPropertyOp54
 70
     1
102
RTVSPropertyOp55
 70
     1
102
RTVSPropertyOp56
 70
     1
102
RTVSPropertyOp57
 70
     1
102
RTVSPropertyOp58
 70
     1
102
RTVSPropertyOp59
 70
     1
102
RTVSPropertyOp60
 70
     1
102
RTVSPropertyOp61
 70
     1
102
RTVSPropertyOp62
 70
     1
  0
XRECORD
  5
26F7
102
{ACAD_REACTORS
330
26F6
102
}
330
26F6
100
AcDbXrecord
280
     1
102
RTVSPost2010Prop28
280
     0
102
RTVSPost2010PropOp28
 70
     1
102
RTVSPost2010Prop29
280
     1
102
RTVSPost2010PropOp29
 70
     1
102
RTVSPost2010Prop30
280
     1
102
RTVSPost2010PropOp30
 70
     1
102
RTVSPost2010Prop31
280
     0
102
RTVSPost2010PropOp31
 70
     1
102
RTVSPost2010Prop32
280
     0
102
RTVSPost2010PropOp32
 70
     1
102
RTVSPost2010Prop33
280
     0
102
RTVSPost2010PropOp33
 70
     1
102
RTVSPost2010Prop34
280
     0
102
RTVSPost2010PropOp34
 70
     1
102
RTVSPost2010Prop35
280
     0
102
RTVSPost2010PropOp35
 70
     1
102
RTVSPost2010Prop36
280
     0
102
RTVSPost2010PropOp36
 70
     1
102
RTVSPost2010Prop37
 90
       50
102
RTVSPost2010PropOp37
 70
     1
102
RTVSPost2010Prop38
140
0.0
102
RTVSPost2010PropOp38
 70
     1
102
RTVSPost2010Prop39
140
1.0
102
RTVSPost2010PropOp39
 70
     1
102
RTVSPost2010Prop40
 90
        0
102
RTVSPost2010PropOp40
 70
     1
102
RTVSPost2010Prop41ColorIndex
 90
       18
102
RTVSPost2010Prop41ColorRGB
 90
        0
102
RTVSPost2010PropOp41
 70
     1
102
RTVSPost2010Prop42
 90
       50
102
RTVSPost2010PropOp42
 70
     1
102
RTVSPost2010Prop43
 90
        3
102
RTVSPost2010PropOp43
 70
     1
102
RTVSPost2010Prop44ColorIndex
 90
        5
102
RTVSPost2010Prop44ColorRGB
 90
      255
102
RTVSPost2010PropOp44
 70
     1
102
RTVSPost2010Prop45
280
     0
102
RTVSPost2010PropOp45
 70
     1
102
RTVSPost2010Prop46
 90
       50
102
RTVSPost2010PropOp46
 70
     1
102
RTVSPost2010Prop47
 90
       50
102
RTVSPost2010PropOp47
 70
     1
102
RTVSPost2010Prop48
 90
       50
102
RTVSPost2010PropOp48
 70
     1
102
RTVSPost2010Prop49
280
     0
102
RTVSPost2010PropOp49
 70
     1
102
RTVSPost2010Prop50
 90
       50
102
RTVSPost2010PropOp50
 70
     1
102
RTVSPost2010Prop51ColorIndex
 90
      256
102
RTVSPost2010Prop51ColorRGB
 90
-16777216
102
RTVSPost2010PropOp51
 70
     0
102
RTVSPost2010Prop52
140
1.0
102
RTVSPost2010PropOp52
 70
     0
102
RTVSPost2010Prop53
 90
        2
102
RTVSPost2010PropOp53
 70
     1
102
RTVSPost2010Prop54
  1
strokes_ogs.tif
102
RTVSPost2010PropOp54
 70
     1
102
RTVSPost2010Prop55
280
     0
102
RTVSPost2010PropOp55
 70
     1
102
RTVSPost2010Prop56
140
1.0
102
RTVSPost2010PropOp56
 70
     1
102
RTVSPost2010Prop57
140
1.0
102
RTVSPost2010PropOp57
 70
     1
102
RTVSPropertyOp0
 70
     1
102
RTVSPropertyOp1
 70
     1
102
RTVSPropertyOp2
 70
     1
102
RTVSPropertyOp3
 70
     1
102
RTVSPropertyOp4
 70
     1
102
RTVSPropertyOp5
 70
     1
102
RTVSPropertyOp6
 70
     1
102
RTVSPropertyOp7
 70
     1
102
RTVSPropertyOp8
 70
     1
102
RTVSPropertyOp9
 70
     1
102
RTVSPropertyOp10
 70
     1
102
RTVSPropertyOp11
 70
     1
102
RTVSPropertyOp12
 70
     1
102
RTVSPropertyOp13
 70
     1
102
RTVSPropertyOp14
 70
     1
102
RTVSPropertyOp15
 70
     1
102
RTVSPropertyOp16
 70
     1
102
RTVSPropertyOp17
 70
     1
102
RTVSPropertyOp18
 70
     1
102
RTVSPropertyOp19
 70
     1
102
RTVSPropertyOp20
 70
     1
102
RTVSPropertyOp21
 70
     1
102
RTVSPropertyOp22
 70
     1
102
RTVSPropertyOp23
 70
     1
102
RTVSPropertyOp24
 70
     1
102
RTVSPropertyOp25
 70
     1
102
RTVSPropertyOp26
 70
     1
102
RTVSPropertyOp27
 70
     1
102
RTVSPropertyOp28
 70
     1
102
RTVSPropertyOp29
 70
     1
102
RTVSPropertyOp30
 70
     1
102
RTVSPropertyOp31
 70
     1
102
RTVSPropertyOp32
 70
     1
102
RTVSPropertyOp33
 70
     1
102
RTVSPropertyOp34
 70
     1
102
RTVSPropertyOp35
 70
     1
102
RTVSPropertyOp36
 70
     1
102
RTVSPropertyOp37
 70
     1
102
RTVSPropertyOp38
 70
     1
102
RTVSPropertyOp39
 70
     1
102
RTVSPropertyOp40
 70
     1
102
RTVSPropertyOp41
 70
     1
102
RTVSPropertyOp42
 70
     1
102
RTVSPropertyOp43
 70
     1
102
RTVSPropertyOp44
 70
     1
102
RTVSPropertyOp45
 70
     1
102
RTVSPropertyOp46
 70
     1
102
RTVSPropertyOp47
 70
     1
102
RTVSPropertyOp48
 70
     1
102
RTVSPropertyOp49
 70
     1
102
RTVSPropertyOp50
 70
     1
102
RTVSPropertyOp51
 70
     0
102
RTVSPropertyOp52
 70
     0
102
RTVSPropertyOp53
 70
     1
102
RTVSPropertyOp54
 70
     1
102
RTVSPropertyOp55
 70
     1
102
RTVSPropertyOp56
 70
     1
102
RTVSPropertyOp57
 70
     1
102
RTVSPropertyOp58
 70
     1
102
RTVSPropertyOp59
 70
     1
102
RTVSPropertyOp60
 70
     1
102
RTVSPropertyOp61
 70
     1
102
RTVSPropertyOp62
 70
     1
  0
XRECORD
  5
2715
102
{ACAD_REACTORS
330
2714
102
}
330
2714
100
AcDbXrecord
280
     1
102
RTVSPost2010Prop28
280
     0
102
RTVSPost2010PropOp28
 70
     0
102
RTVSPost2010Prop29
280
     1
102
RTVSPost2010PropOp29
 70
     0
102
RTVSPost2010Prop30
280
     1
102
RTVSPost2010PropOp30
 70
     0
102
RTVSPost2010Prop31
280
     0
102
RTVSPost2010PropOp31
 70
     0
102
RTVSPost2010Prop32
280
     0
102
RTVSPost2010PropOp32
 70
     0
102
RTVSPost2010Prop33
280
     0
102
RTVSPost2010PropOp33
 70
     0
102
RTVSPost2010Prop34
280
     0
102
RTVSPost2010PropOp34
 70
     0
102
RTVSPost2010Prop35
280
     0
102
RTVSPost2010PropOp35
 70
     0
102
RTVSPost2010Prop36
280
     0
102
RTVSPost2010PropOp36
 70
     0
102
RTVSPost2010Prop37
 90
       50
102
RTVSPost2010PropOp37
 70
     0
102
RTVSPost2010Prop38
140
0.0
102
RTVSPost2010PropOp38
 70
     0
102
RTVSPost2010Prop39
140
1.0
102
RTVSPost2010PropOp39
 70
     0
102
RTVSPost2010Prop40
 90
        0
102
RTVSPost2010PropOp40
 70
     0
102
RTVSPost2010Prop41ColorIndex
 90
       18
102
RTVSPost2010Prop41ColorRGB
 90
        0
102
RTVSPost2010PropOp41
 70
     0
102
RTVSPost2010Prop42
 90
       50
102
RTVSPost2010PropOp42
 70
     0
102
RTVSPost2010Prop43
 90
        3
102
RTVSPost2010PropOp43
 70
     0
102
RTVSPost2010Prop44ColorIndex
 90
        5
102
RTVSPost2010Prop44ColorRGB
 90
      255
102
RTVSPost2010PropOp44
 70
     0
102
RTVSPost2010Prop45
280
     0
102
RTVSPost2010PropOp45
 70
     0
102
RTVSPost2010Prop46
 90
       50
102
RTVSPost2010PropOp46
 70
     0
102
RTVSPost2010Prop47
 90
       50
102
RTVSPost2010PropOp47
 70
     0
102
RTVSPost2010Prop48
 90
       50
102
RTVSPost2010PropOp48
 70
     0
102
RTVSPost2010Prop49
280
     0
102
RTVSPost2010PropOp49
 70
     0
102
RTVSPost2010Prop50
 90
       50
102
RTVSPost2010PropOp50
 70
     0
102
RTVSPost2010Prop51ColorIndex
 90
      256
102
RTVSPost2010Prop51ColorRGB
 90
-16777216
102
RTVSPost2010PropOp51
 70
     0
102
RTVSPost2010Prop52
140
1.0
102
RTVSPost2010PropOp52
 70
     0
102
RTVSPost2010Prop53
 90
        2
102
RTVSPost2010PropOp53
 70
     0
102
RTVSPost2010Prop54
  1
strokes_ogs.tif
102
RTVSPost2010PropOp54
 70
     0
102
RTVSPost2010Prop55
280
     0
102
RTVSPost2010PropOp55
 70
     0
102
RTVSPost2010Prop56
140
1.0
102
RTVSPost2010PropOp56
 70
     0
102
RTVSPost2010Prop57
140
1.0
102
RTVSPost2010PropOp57
 70
     0
102
RTVSPropertyOp0
 70
     0
102
RTVSPropertyOp1
 70
     0
102
RTVSPropertyOp2
 70
     0
102
RTVSPropertyOp3
 70
     0
102
RTVSPropertyOp4
 70
     0
102
RTVSPropertyOp5
 70
     0
102
RTVSPropertyOp6
 70
     0
102
RTVSPropertyOp7
 70
     0
102
RTVSPropertyOp8
 70
     0
102
RTVSPropertyOp9
 70
     0
102
RTVSPropertyOp10
 70
     0
102
RTVSPropertyOp11
 70
     0
102
RTVSPropertyOp12
 70
     0
102
RTVSPropertyOp13
 70
     0
102
RTVSPropertyOp14
 70
     2
102
RTVSPropertyOp15
 70
     0
102
RTVSPropertyOp16
 70
     0
102
RTVSPropertyOp17
 70
     0
102
RTVSPropertyOp18
 70
     0
102
RTVSPropertyOp19
 70
     0
102
RTVSPropertyOp20
 70
     0
102
RTVSPropertyOp21
 70
     0
102
RTVSPropertyOp22
 70
     0
102
RTVSPropertyOp23
 70
     0
102
RTVSPropertyOp24
 70
     0
102
RTVSPropertyOp25
 70
     0
102
RTVSPropertyOp26
 70
     0
102
RTVSPropertyOp27
 70
     0
102
RTVSPropertyOp28
 70
     0
102
RTVSPropertyOp29
 70
     0
102
RTVSPropertyOp30
 70
     0
102
RTVSPropertyOp31
 70
     0
102
RTVSPropertyOp32
 70
     0
102
RTVSPropertyOp33
 70
     0
102
RTVSPropertyOp34
 70
     0
102
RTVSPropertyOp35
 70
     0
102
RTVSPropertyOp36
 70
     0
102
RTVSPropertyOp37
 70
     0
102
RTVSPropertyOp38
 70
     0
102
RTVSPropertyOp39
 70
     0
102
RTVSPropertyOp40
 70
     0
102
RTVSPropertyOp41
 70
     0
102
RTVSPropertyOp42
 70
     0
102
RTVSPropertyOp43
 70
     0
102
RTVSPropertyOp44
 70
     0
102
RTVSPropertyOp45
 70
     0
102
RTVSPropertyOp46
 70
     0
102
RTVSPropertyOp47
 70
     0
102
RTVSPropertyOp48
 70
     0
102
RTVSPropertyOp49
 70
     0
102
RTVSPropertyOp50
 70
     0
102
RTVSPropertyOp51
 70
     0
102
RTVSPropertyOp52
 70
     0
102
RTVSPropertyOp53
 70
     0
102
RTVSPropertyOp54
 70
     0
102
RTVSPropertyOp55
 70
     0
102
RTVSPropertyOp56
 70
     0
102
RTVSPropertyOp57
 70
     0
102
RTVSPropertyOp58
 70
     0
102
RTVSPropertyOp59
 70
     0
102
RTVSPropertyOp60
 70
     0
102
RTVSPropertyOp61
 70
     0
102
RTVSPropertyOp62
 70
     0
  0
XRECORD
  5
26FF
102
{ACAD_REACTORS
330
26FE
102
}
330
26FE
100
AcDbXrecord
280
     1
102
RTVSPost2010Prop28
280
     0
102
RTVSPost2010PropOp28
 70
     1
102
RTVSPost2010Prop29
280
     1
102
RTVSPost2010PropOp29
 70
     1
102
RTVSPost2010Prop30
280
     1
102
RTVSPost2010PropOp30
 70
     1
102
RTVSPost2010Prop31
280
     0
102
RTVSPost2010PropOp31
 70
     1
102
RTVSPost2010Prop32
280
     0
102
RTVSPost2010PropOp32
 70
     1
102
RTVSPost2010Prop33
280
     0
102
RTVSPost2010PropOp33
 70
     1
102
RTVSPost2010Prop34
280
     0
102
RTVSPost2010PropOp34
 70
     1
102
RTVSPost2010Prop35
280
     0
102
RTVSPost2010PropOp35
 70
     1
102
RTVSPost2010Prop36
280
     0
102
RTVSPost2010PropOp36
 70
     1
102
RTVSPost2010Prop37
 90
       50
102
RTVSPost2010PropOp37
 70
     1
102
RTVSPost2010Prop38
140
0.0
102
RTVSPost2010PropOp38
 70
     1
102
RTVSPost2010Prop39
140
1.0
102
RTVSPost2010PropOp39
 70
     1
102
RTVSPost2010Prop40
 90
        0
102
RTVSPost2010PropOp40
 70
     1
102
RTVSPost2010Prop41ColorIndex
 90
       18
102
RTVSPost2010Prop41ColorRGB
 90
        0
102
RTVSPost2010PropOp41
 70
     1
102
RTVSPost2010Prop42
 90
       50
102
RTVSPost2010PropOp42
 70
     1
102
RTVSPost2010Prop43
 90
        3
102
RTVSPost2010PropOp43
 70
     1
102
RTVSPost2010Prop44ColorIndex
 90
        5
102
RTVSPost2010Prop44ColorRGB
 90
      255
102
RTVSPost2010PropOp44
 70
     1
102
RTVSPost2010Prop45
280
     0
102
RTVSPost2010PropOp45
 70
     1
102
RTVSPost2010Prop46
 90
       50
102
RTVSPost2010PropOp46
 70
     1
102
RTVSPost2010Prop47
 90
       50
102
RTVSPost2010PropOp47
 70
     1
102
RTVSPost2010Prop48
 90
       50
102
RTVSPost2010PropOp48
 70
     1
102
RTVSPost2010Prop49
280
     0
102
RTVSPost2010PropOp49
 70
     1
102
RTVSPost2010Prop50
 90
       50
102
RTVSPost2010PropOp50
 70
     1
102
RTVSPost2010Prop51ColorIndex
 90
      256
102
RTVSPost2010Prop51ColorRGB
 90
-16777216
102
RTVSPost2010PropOp51
 70
     0
102
RTVSPost2010Prop52
140
1.0
102
RTVSPost2010PropOp52
 70
     0
102
RTVSPost2010Prop53
 90
        2
102
RTVSPost2010PropOp53
 70
     1
102
RTVSPost2010Prop54
  1
strokes_ogs.tif
102
RTVSPost2010PropOp54
 70
     1
102
RTVSPost2010Prop55
280
     0
102
RTVSPost2010PropOp55
 70
     1
102
RTVSPost2010Prop56
140
1.0
102
RTVSPost2010PropOp56
 70
     1
102
RTVSPost2010Prop57
140
1.0
102
RTVSPost2010PropOp57
 70
     1
102
RTVSPropertyOp0
 70
     1
102
RTVSPropertyOp1
 70
     1
102
RTVSPropertyOp2
 70
     1
102
RTVSPropertyOp3
 70
     1
102
RTVSPropertyOp4
 70
     1
102
RTVSPropertyOp5
 70
     1
102
RTVSPropertyOp6
 70
     1
102
RTVSPropertyOp7
 70
     1
102
RTVSPropertyOp8
 70
     1
102
RTVSPropertyOp9
 70
     1
102
RTVSPropertyOp10
 70
     1
102
RTVSPropertyOp11
 70
     1
102
RTVSPropertyOp12
 70
     1
102
RTVSPropertyOp13
 70
     1
102
RTVSPropertyOp14
 70
     1
102
RTVSPropertyOp15
 70
     1
102
RTVSPropertyOp16
 70
     1
102
RTVSPropertyOp17
 70
     1
102
RTVSPropertyOp18
 70
     1
102
RTVSPropertyOp19
 70
     1
102
RTVSPropertyOp20
 70
     1
102
RTVSPropertyOp21
 70
     1
102
RTVSPropertyOp22
 70
     1
102
RTVSPropertyOp23
 70
     1
102
RTVSPropertyOp24
 70
     1
102
RTVSPropertyOp25
 70
     1
102
RTVSPropertyOp26
 70
     1
102
RTVSPropertyOp27
 70
     1
102
RTVSPropertyOp28
 70
     1
102
RTVSPropertyOp29
 70
     1
102
RTVSPropertyOp30
 70
     1
102
RTVSPropertyOp31
 70
     1
102
RTVSPropertyOp32
 70
     1
102
RTVSPropertyOp33
 70
     1
102
RTVSPropertyOp34
 70
     1
102
RTVSPropertyOp35
 70
     1
102
RTVSPropertyOp36
 70
     1
102
RTVSPropertyOp37
 70
     1
102
RTVSPropertyOp38
 70
     1
102
RTVSPropertyOp39
 70
     1
102
RTVSPropertyOp40
 70
     1
102
RTVSPropertyOp41
 70
     1
102
RTVSPropertyOp42
 70
     1
102
RTVSPropertyOp43
 70
     1
102
RTVSPropertyOp44
 70
     1
102
RTVSPropertyOp45
 70
     1
102
RTVSPropertyOp46
 70
     1
102
RTVSPropertyOp47
 70
     1
102
RTVSPropertyOp48
 70
     1
102
RTVSPropertyOp49
 70
     1
102
RTVSPropertyOp50
 70
     1
102
RTVSPropertyOp51
 70
     0
102
RTVSPropertyOp52
 70
     0
102
RTVSPropertyOp53
 70
     1
102
RTVSPropertyOp54
 70
     1
102
RTVSPropertyOp55
 70
     1
102
RTVSPropertyOp56
 70
     1
102
RTVSPropertyOp57
 70
     1
102
RTVSPropertyOp58
 70
     1
102
RTVSPropertyOp59
 70
     1
102
RTVSPropertyOp60
 70
     1
102
RTVSPropertyOp61
 70
     1
102
RTVSPropertyOp62
 70
     1
  0
XRECORD
  5
26E3
102
{ACAD_REACTORS
330
26E2
102
}
330
26E2
100
AcDbXrecord
280
     1
102
RTVSPost2010Prop28
280
     0
102
RTVSPost2010PropOp28
 70
     1
102
RTVSPost2010Prop29
280
     1
102
RTVSPost2010PropOp29
 70
     1
102
RTVSPost2010Prop30
280
     1
102
RTVSPost2010PropOp30
 70
     1
102
RTVSPost2010Prop31
280
     0
102
RTVSPost2010PropOp31
 70
     1
102
RTVSPost2010Prop32
280
     0
102
RTVSPost2010PropOp32
 70
     1
102
RTVSPost2010Prop33
280
     0
102
RTVSPost2010PropOp33
 70
     1
102
RTVSPost2010Prop34
280
     0
102
RTVSPost2010PropOp34
 70
     1
102
RTVSPost2010Prop35
280
     0
102
RTVSPost2010PropOp35
 70
     1
102
RTVSPost2010Prop36
280
     0
102
RTVSPost2010PropOp36
 70
     1
102
RTVSPost2010Prop37
 90
       50
102
RTVSPost2010PropOp37
 70
     1
102
RTVSPost2010Prop38
140
0.0
102
RTVSPost2010PropOp38
 70
     1
102
RTVSPost2010Prop39
140
1.0
102
RTVSPost2010PropOp39
 70
     1
102
RTVSPost2010Prop40
 90
        0
102
RTVSPost2010PropOp40
 70
     1
102
RTVSPost2010Prop41ColorIndex
 90
       18
102
RTVSPost2010Prop41ColorRGB
 90
        0
102
RTVSPost2010PropOp41
 70
     1
102
RTVSPost2010Prop42
 90
       50
102
RTVSPost2010PropOp42
 70
     1
102
RTVSPost2010Prop43
 90
        3
102
RTVSPost2010PropOp43
 70
     1
102
RTVSPost2010Prop44ColorIndex
 90
        5
102
RTVSPost2010Prop44ColorRGB
 90
      255
102
RTVSPost2010PropOp44
 70
     1
102
RTVSPost2010Prop45
280
     0
102
RTVSPost2010PropOp45
 70
     1
102
RTVSPost2010Prop46
 90
       50
102
RTVSPost2010PropOp46
 70
     1
102
RTVSPost2010Prop47
 90
       50
102
RTVSPost2010PropOp47
 70
     1
102
RTVSPost2010Prop48
 90
       50
102
RTVSPost2010PropOp48
 70
     1
102
RTVSPost2010Prop49
280
     0
102
RTVSPost2010PropOp49
 70
     1
102
RTVSPost2010Prop50
 90
       50
102
RTVSPost2010PropOp50
 70
     1
102
RTVSPost2010Prop51ColorIndex
 90
      256
102
RTVSPost2010Prop51ColorRGB
 90
-16777216
102
RTVSPost2010PropOp51
 70
     0
102
RTVSPost2010Prop52
140
1.0
102
RTVSPost2010PropOp52
 70
     0
102
RTVSPost2010Prop53
 90
        2
102
RTVSPost2010PropOp53
 70
     1
102
RTVSPost2010Prop54
  1
strokes_ogs.tif
102
RTVSPost2010PropOp54
 70
     1
102
RTVSPost2010Prop55
280
     0
102
RTVSPost2010PropOp55
 70
     1
102
RTVSPost2010Prop56
140
1.0
102
RTVSPost2010PropOp56
 70
     1
102
RTVSPost2010Prop57
140
1.0
102
RTVSPost2010PropOp57
 70
     1
102
RTVSPropertyOp0
 70
     1
102
RTVSPropertyOp1
 70
     1
102
RTVSPropertyOp2
 70
     1
102
RTVSPropertyOp3
 70
     1
102
RTVSPropertyOp4
 70
     1
102
RTVSPropertyOp5
 70
     1
102
RTVSPropertyOp6
 70
     1
102
RTVSPropertyOp7
 70
     1
102
RTVSPropertyOp8
 70
     1
102
RTVSPropertyOp9
 70
     1
102
RTVSPropertyOp10
 70
     1
102
RTVSPropertyOp11
 70
     1
102
RTVSPropertyOp12
 70
     1
102
RTVSPropertyOp13
 70
     1
102
RTVSPropertyOp14
 70
     1
102
RTVSPropertyOp15
 70
     1
102
RTVSPropertyOp16
 70
     1
102
RTVSPropertyOp17
 70
     1
102
RTVSPropertyOp18
 70
     1
102
RTVSPropertyOp19
 70
     1
102
RTVSPropertyOp20
 70
     1
102
RTVSPropertyOp21
 70
     1
102
RTVSPropertyOp22
 70
     1
102
RTVSPropertyOp23
 70
     1
102
RTVSPropertyOp24
 70
     1
102
RTVSPropertyOp25
 70
     1
102
RTVSPropertyOp26
 70
     1
102
RTVSPropertyOp27
 70
     1
102
RTVSPropertyOp28
 70
     1
102
RTVSPropertyOp29
 70
     1
102
RTVSPropertyOp30
 70
     1
102
RTVSPropertyOp31
 70
     1
102
RTVSPropertyOp32
 70
     1
102
RTVSPropertyOp33
 70
     1
102
RTVSPropertyOp34
 70
     1
102
RTVSPropertyOp35
 70
     1
102
RTVSPropertyOp36
 70
     1
102
RTVSPropertyOp37
 70
     1
102
RTVSPropertyOp38
 70
     1
102
RTVSPropertyOp39
 70
     1
102
RTVSPropertyOp40
 70
     1
102
RTVSPropertyOp41
 70
     1
102
RTVSPropertyOp42
 70
     1
102
RTVSPropertyOp43
 70
     1
102
RTVSPropertyOp44
 70
     1
102
RTVSPropertyOp45
 70
     1
102
RTVSPropertyOp46
 70
     1
102
RTVSPropertyOp47
 70
     1
102
RTVSPropertyOp48
 70
     1
102
RTVSPropertyOp49
 70
     1
102
RTVSPropertyOp50
 70
     1
102
RTVSPropertyOp51
 70
     0
102
RTVSPropertyOp52
 70
     0
102
RTVSPropertyOp53
 70
     1
102
RTVSPropertyOp54
 70
     1
102
RTVSPropertyOp55
 70
     1
102
RTVSPropertyOp56
 70
     1
102
RTVSPropertyOp57
 70
     1
102
RTVSPropertyOp58
 70
     1
102
RTVSPropertyOp59
 70
     1
102
RTVSPropertyOp60
 70
     1
102
RTVSPropertyOp61
 70
     1
102
RTVSPropertyOp62
 70
     1
  0
XRECORD
  5
26E5
102
{ACAD_REACTORS
330
26E4
102
}
330
26E4
100
AcDbXrecord
280
     1
102
RTVSPost2010Prop28
280
     0
102
RTVSPost2010PropOp28
 70
     1
102
RTVSPost2010Prop29
280
     1
102
RTVSPost2010PropOp29
 70
     1
102
RTVSPost2010Prop30
280
     1
102
RTVSPost2010PropOp30
 70
     1
102
RTVSPost2010Prop31
280
     0
102
RTVSPost2010PropOp31
 70
     1
102
RTVSPost2010Prop32
280
     0
102
RTVSPost2010PropOp32
 70
     1
102
RTVSPost2010Prop33
280
     0
102
RTVSPost2010PropOp33
 70
     1
102
RTVSPost2010Prop34
280
     0
102
RTVSPost2010PropOp34
 70
     1
102
RTVSPost2010Prop35
280
     0
102
RTVSPost2010PropOp35
 70
     1
102
RTVSPost2010Prop36
280
     0
102
RTVSPost2010PropOp36
 70
     1
102
RTVSPost2010Prop37
 90
       50
102
RTVSPost2010PropOp37
 70
     1
102
RTVSPost2010Prop38
140
0.0
102
RTVSPost2010PropOp38
 70
     1
102
RTVSPost2010Prop39
140
1.0
102
RTVSPost2010PropOp39
 70
     1
102
RTVSPost2010Prop40
 90
        0
102
RTVSPost2010PropOp40
 70
     1
102
RTVSPost2010Prop41ColorIndex
 90
       18
102
RTVSPost2010Prop41ColorRGB
 90
        0
102
RTVSPost2010PropOp41
 70
     1
102
RTVSPost2010Prop42
 90
       50
102
RTVSPost2010PropOp42
 70
     1
102
RTVSPost2010Prop43
 90
        3
102
RTVSPost2010PropOp43
 70
     1
102
RTVSPost2010Prop44ColorIndex
 90
        5
102
RTVSPost2010Prop44ColorRGB
 90
      255
102
RTVSPost2010PropOp44
 70
     1
102
RTVSPost2010Prop45
280
     0
102
RTVSPost2010PropOp45
 70
     1
102
RTVSPost2010Prop46
 90
       50
102
RTVSPost2010PropOp46
 70
     1
102
RTVSPost2010Prop47
 90
       50
102
RTVSPost2010PropOp47
 70
     1
102
RTVSPost2010Prop48
 90
       50
102
RTVSPost2010PropOp48
 70
     1
102
RTVSPost2010Prop49
280
     0
102
RTVSPost2010PropOp49
 70
     1
102
RTVSPost2010Prop50
 90
       50
102
RTVSPost2010PropOp50
 70
     1
102
RTVSPost2010Prop51ColorIndex
 90
      256
102
RTVSPost2010Prop51ColorRGB
 90
-16777216
102
RTVSPost2010PropOp51
 70
     0
102
RTVSPost2010Prop52
140
1.0
102
RTVSPost2010PropOp52
 70
     0
102
RTVSPost2010Prop53
 90
        2
102
RTVSPost2010PropOp53
 70
     1
102
RTVSPost2010Prop54
  1
strokes_ogs.tif
102
RTVSPost2010PropOp54
 70
     1
102
RTVSPost2010Prop55
280
     0
102
RTVSPost2010PropOp55
 70
     1
102
RTVSPost2010Prop56
140
1.0
102
RTVSPost2010PropOp56
 70
     1
102
RTVSPost2010Prop57
140
1.0
102
RTVSPost2010PropOp57
 70
     1
102
RTVSPropertyOp0
 70
     1
102
RTVSPropertyOp1
 70
     1
102
RTVSPropertyOp2
 70
     1
102
RTVSPropertyOp3
 70
     1
102
RTVSPropertyOp4
 70
     1
102
RTVSPropertyOp5
 70
     1
102
RTVSPropertyOp6
 70
     1
102
RTVSPropertyOp7
 70
     1
102
RTVSPropertyOp8
 70
     1
102
RTVSPropertyOp9
 70
     1
102
RTVSPropertyOp10
 70
     1
102
RTVSPropertyOp11
 70
     1
102
RTVSPropertyOp12
 70
     1
102
RTVSPropertyOp13
 70
     1
102
RTVSPropertyOp14
 70
     1
102
RTVSPropertyOp15
 70
     1
102
RTVSPropertyOp16
 70
     1
102
RTVSPropertyOp17
 70
     1
102
RTVSPropertyOp18
 70
     1
102
RTVSPropertyOp19
 70
     1
102
RTVSPropertyOp20
 70
     1
102
RTVSPropertyOp21
 70
     1
102
RTVSPropertyOp22
 70
     1
102
RTVSPropertyOp23
 70
     1
102
RTVSPropertyOp24
 70
     1
102
RTVSPropertyOp25
 70
     1
102
RTVSPropertyOp26
 70
     1
102
RTVSPropertyOp27
 70
     1
102
RTVSPropertyOp28
 70
     1
102
RTVSPropertyOp29
 70
     1
102
RTVSPropertyOp30
 70
     1
102
RTVSPropertyOp31
 70
     1
102
RTVSPropertyOp32
 70
     1
102
RTVSPropertyOp33
 70
     1
102
RTVSPropertyOp34
 70
     1
102
RTVSPropertyOp35
 70
     1
102
RTVSPropertyOp36
 70
     1
102
RTVSPropertyOp37
 70
     1
102
RTVSPropertyOp38
 70
     1
102
RTVSPropertyOp39
 70
     1
102
RTVSPropertyOp40
 70
     1
102
RTVSPropertyOp41
 70
     1
102
RTVSPropertyOp42
 70
     1
102
RTVSPropertyOp43
 70
     1
102
RTVSPropertyOp44
 70
     1
102
RTVSPropertyOp45
 70
     1
102
RTVSPropertyOp46
 70
     1
102
RTVSPropertyOp47
 70
     1
102
RTVSPropertyOp48
 70
     1
102
RTVSPropertyOp49
 70
     1
102
RTVSPropertyOp50
 70
     1
102
RTVSPropertyOp51
 70
     0
102
RTVSPropertyOp52
 70
     0
102
RTVSPropertyOp53
 70
     1
102
RTVSPropertyOp54
 70
     1
102
RTVSPropertyOp55
 70
     1
102
RTVSPropertyOp56
 70
     1
102
RTVSPropertyOp57
 70
     1
102
RTVSPropertyOp58
 70
     1
102
RTVSPropertyOp59
 70
     1
102
RTVSPropertyOp60
 70
     1
102
RTVSPropertyOp61
 70
     1
102
RTVSPropertyOp62
 70
     1
  0
XRECORD
  5
26E7
102
{ACAD_REACTORS
330
26E6
102
}
330
26E6
100
AcDbXrecord
280
     1
102
RTVSPost2010Prop28
280
     0
102
RTVSPost2010PropOp28
 70
     1
102
RTVSPost2010Prop29
280
     1
102
RTVSPost2010PropOp29
 70
     1
102
RTVSPost2010Prop30
280
     1
102
RTVSPost2010PropOp30
 70
     1
102
RTVSPost2010Prop31
280
     0
102
RTVSPost2010PropOp31
 70
     1
102
RTVSPost2010Prop32
280
     0
102
RTVSPost2010PropOp32
 70
     1
102
RTVSPost2010Prop33
280
     0
102
RTVSPost2010PropOp33
 70
     1
102
RTVSPost2010Prop34
280
     0
102
RTVSPost2010PropOp34
 70
     1
102
RTVSPost2010Prop35
280
     0
102
RTVSPost2010PropOp35
 70
     1
102
RTVSPost2010Prop36
280
     0
102
RTVSPost2010PropOp36
 70
     1
102
RTVSPost2010Prop37
 90
       50
102
RTVSPost2010PropOp37
 70
     1
102
RTVSPost2010Prop38
140
0.0
102
RTVSPost2010PropOp38
 70
     1
102
RTVSPost2010Prop39
140
1.0
102
RTVSPost2010PropOp39
 70
     1
102
RTVSPost2010Prop40
 90
        0
102
RTVSPost2010PropOp40
 70
     1
102
RTVSPost2010Prop41ColorIndex
 90
       18
102
RTVSPost2010Prop41ColorRGB
 90
        0
102
RTVSPost2010PropOp41
 70
     1
102
RTVSPost2010Prop42
 90
       50
102
RTVSPost2010PropOp42
 70
     1
102
RTVSPost2010Prop43
 90
        3
102
RTVSPost2010PropOp43
 70
     1
102
RTVSPost2010Prop44ColorIndex
 90
        5
102
RTVSPost2010Prop44ColorRGB
 90
      255
102
RTVSPost2010PropOp44
 70
     1
102
RTVSPost2010Prop45
280
     0
102
RTVSPost2010PropOp45
 70
     1
102
RTVSPost2010Prop46
 90
       50
102
RTVSPost2010PropOp46
 70
     1
102
RTVSPost2010Prop47
 90
       50
102
RTVSPost2010PropOp47
 70
     1
102
RTVSPost2010Prop48
 90
       50
102
RTVSPost2010PropOp48
 70
     1
102
RTVSPost2010Prop49
280
     0
102
RTVSPost2010PropOp49
 70
     1
102
RTVSPost2010Prop50
 90
       50
102
RTVSPost2010PropOp50
 70
     1
102
RTVSPost2010Prop51ColorIndex
 90
      256
102
RTVSPost2010Prop51ColorRGB
 90
-16777216
102
RTVSPost2010PropOp51
 70
     0
102
RTVSPost2010Prop52
140
1.0
102
RTVSPost2010PropOp52
 70
     0
102
RTVSPost2010Prop53
 90
        2
102
RTVSPost2010PropOp53
 70
     1
102
RTVSPost2010Prop54
  1
strokes_ogs.tif
102
RTVSPost2010PropOp54
 70
     1
102
RTVSPost2010Prop55
280
     0
102
RTVSPost2010PropOp55
 70
     1
102
RTVSPost2010Prop56
140
1.0
102
RTVSPost2010PropOp56
 70
     1
102
RTVSPost2010Prop57
140
1.0
102
RTVSPost2010PropOp57
 70
     1
102
RTVSPropertyOp0
 70
     1
102
RTVSPropertyOp1
 70
     1
102
RTVSPropertyOp2
 70
     1
102
RTVSPropertyOp3
 70
     1
102
RTVSPropertyOp4
 70
     1
102
RTVSPropertyOp5
 70
     1
102
RTVSPropertyOp6
 70
     1
102
RTVSPropertyOp7
 70
     1
102
RTVSPropertyOp8
 70
     1
102
RTVSPropertyOp9
 70
     1
102
RTVSPropertyOp10
 70
     1
102
RTVSPropertyOp11
 70
     1
102
RTVSPropertyOp12
 70
     1
102
RTVSPropertyOp13
 70
     1
102
RTVSPropertyOp14
 70
     1
102
RTVSPropertyOp15
 70
     1
102
RTVSPropertyOp16
 70
     1
102
RTVSPropertyOp17
 70
     1
102
RTVSPropertyOp18
 70
     1
102
RTVSPropertyOp19
 70
     1
102
RTVSPropertyOp20
 70
     1
102
RTVSPropertyOp21
 70
     1
102
RTVSPropertyOp22
 70
     1
102
RTVSPropertyOp23
 70
     1
102
RTVSPropertyOp24
 70
     1
102
RTVSPropertyOp25
 70
     1
102
RTVSPropertyOp26
 70
     1
102
RTVSPropertyOp27
 70
     1
102
RTVSPropertyOp28
 70
     1
102
RTVSPropertyOp29
 70
     1
102
RTVSPropertyOp30
 70
     1
102
RTVSPropertyOp31
 70
     1
102
RTVSPropertyOp32
 70
     1
102
RTVSPropertyOp33
 70
     1
102
RTVSPropertyOp34
 70
     1
102
RTVSPropertyOp35
 70
     1
102
RTVSPropertyOp36
 70
     1
102
RTVSPropertyOp37
 70
     1
102
RTVSPropertyOp38
 70
     1
102
RTVSPropertyOp39
 70
     1
102
RTVSPropertyOp40
 70
     1
102
RTVSPropertyOp41
 70
     1
102
RTVSPropertyOp42
 70
     1
102
RTVSPropertyOp43
 70
     1
102
RTVSPropertyOp44
 70
     1
102
RTVSPropertyOp45
 70
     1
102
RTVSPropertyOp46
 70
     1
102
RTVSPropertyOp47
 70
     1
102
RTVSPropertyOp48
 70
     1
102
RTVSPropertyOp49
 70
     1
102
RTVSPropertyOp50
 70
     1
102
RTVSPropertyOp51
 70
     0
102
RTVSPropertyOp52
 70
     0
102
RTVSPropertyOp53
 70
     1
102
RTVSPropertyOp54
 70
     1
102
RTVSPropertyOp55
 70
     1
102
RTVSPropertyOp56
 70
     1
102
RTVSPropertyOp57
 70
     1
102
RTVSPropertyOp58
 70
     1
102
RTVSPropertyOp59
 70
     1
102
RTVSPropertyOp60
 70
     1
102
RTVSPropertyOp61
 70
     1
102
RTVSPropertyOp62
 70
     1
  0
XRECORD
  5
26E9
102
{ACAD_REACTORS
330
26E8
102
}
330
26E8
100
AcDbXrecord
280
     1
102
RTVSPost2010Prop28
280
     0
102
RTVSPost2010PropOp28
 70
     1
102
RTVSPost2010Prop29
280
     1
102
RTVSPost2010PropOp29
 70
     1
102
RTVSPost2010Prop30
280
     1
102
RTVSPost2010PropOp30
 70
     1
102
RTVSPost2010Prop31
280
     0
102
RTVSPost2010PropOp31
 70
     1
102
RTVSPost2010Prop32
280
     0
102
RTVSPost2010PropOp32
 70
     1
102
RTVSPost2010Prop33
280
     0
102
RTVSPost2010PropOp33
 70
     1
102
RTVSPost2010Prop34
280
     0
102
RTVSPost2010PropOp34
 70
     1
102
RTVSPost2010Prop35
280
     0
102
RTVSPost2010PropOp35
 70
     1
102
RTVSPost2010Prop36
280
     0
102
RTVSPost2010PropOp36
 70
     1
102
RTVSPost2010Prop37
 90
       50
102
RTVSPost2010PropOp37
 70
     1
102
RTVSPost2010Prop38
140
0.0
102
RTVSPost2010PropOp38
 70
     1
102
RTVSPost2010Prop39
140
1.0
102
RTVSPost2010PropOp39
 70
     1
102
RTVSPost2010Prop40
 90
        0
102
RTVSPost2010PropOp40
 70
     1
102
RTVSPost2010Prop41ColorIndex
 90
       18
102
RTVSPost2010Prop41ColorRGB
 90
        0
102
RTVSPost2010PropOp41
 70
     1
102
RTVSPost2010Prop42
 90
       50
102
RTVSPost2010PropOp42
 70
     1
102
RTVSPost2010Prop43
 90
        3
102
RTVSPost2010PropOp43
 70
     1
102
RTVSPost2010Prop44ColorIndex
 90
        5
102
RTVSPost2010Prop44ColorRGB
 90
      255
102
RTVSPost2010PropOp44
 70
     1
102
RTVSPost2010Prop45
280
     0
102
RTVSPost2010PropOp45
 70
     1
102
RTVSPost2010Prop46
 90
       50
102
RTVSPost2010PropOp46
 70
     1
102
RTVSPost2010Prop47
 90
       50
102
RTVSPost2010PropOp47
 70
     1
102
RTVSPost2010Prop48
 90
       50
102
RTVSPost2010PropOp48
 70
     1
102
RTVSPost2010Prop49
280
     0
102
RTVSPost2010PropOp49
 70
     1
102
RTVSPost2010Prop50
 90
       50
102
RTVSPost2010PropOp50
 70
     1
102
RTVSPost2010Prop51ColorIndex
 90
      256
102
RTVSPost2010Prop51ColorRGB
 90
-16777216
102
RTVSPost2010PropOp51
 70
     0
102
RTVSPost2010Prop52
140
1.0
102
RTVSPost2010PropOp52
 70
     0
102
RTVSPost2010Prop53
 90
        2
102
RTVSPost2010PropOp53
 70
     1
102
RTVSPost2010Prop54
  1
strokes_ogs.tif
102
RTVSPost2010PropOp54
 70
     1
102
RTVSPost2010Prop55
280
     0
102
RTVSPost2010PropOp55
 70
     1
102
RTVSPost2010Prop56
140
1.0
102
RTVSPost2010PropOp56
 70
     1
102
RTVSPost2010Prop57
140
1.0
102
RTVSPost2010PropOp57
 70
     1
102
RTVSPropertyOp0
 70
     1
102
RTVSPropertyOp1
 70
     1
102
RTVSPropertyOp2
 70
     1
102
RTVSPropertyOp3
 70
     1
102
RTVSPropertyOp4
 70
     1
102
RTVSPropertyOp5
 70
     1
102
RTVSPropertyOp6
 70
     1
102
RTVSPropertyOp7
 70
     1
102
RTVSPropertyOp8
 70
     1
102
RTVSPropertyOp9
 70
     1
102
RTVSPropertyOp10
 70
     1
102
RTVSPropertyOp11
 70
     1
102
RTVSPropertyOp12
 70
     1
102
RTVSPropertyOp13
 70
     1
102
RTVSPropertyOp14
 70
     1
102
RTVSPropertyOp15
 70
     1
102
RTVSPropertyOp16
 70
     1
102
RTVSPropertyOp17
 70
     1
102
RTVSPropertyOp18
 70
     1
102
RTVSPropertyOp19
 70
     1
102
RTVSPropertyOp20
 70
     1
102
RTVSPropertyOp21
 70
     1
102
RTVSPropertyOp22
 70
     1
102
RTVSPropertyOp23
 70
     1
102
RTVSPropertyOp24
 70
     1
102
RTVSPropertyOp25
 70
     1
102
RTVSPropertyOp26
 70
     1
102
RTVSPropertyOp27
 70
     1
102
RTVSPropertyOp28
 70
     1
102
RTVSPropertyOp29
 70
     1
102
RTVSPropertyOp30
 70
     1
102
RTVSPropertyOp31
 70
     1
102
RTVSPropertyOp32
 70
     1
102
RTVSPropertyOp33
 70
     1
102
RTVSPropertyOp34
 70
     1
102
RTVSPropertyOp35
 70
     1
102
RTVSPropertyOp36
 70
     1
102
RTVSPropertyOp37
 70
     1
102
RTVSPropertyOp38
 70
     1
102
RTVSPropertyOp39
 70
     1
102
RTVSPropertyOp40
 70
     1
102
RTVSPropertyOp41
 70
     1
102
RTVSPropertyOp42
 70
     1
102
RTVSPropertyOp43
 70
     1
102
RTVSPropertyOp44
 70
     1
102
RTVSPropertyOp45
 70
     1
102
RTVSPropertyOp46
 70
     1
102
RTVSPropertyOp47
 70
     1
102
RTVSPropertyOp48
 70
     1
102
RTVSPropertyOp49
 70
     1
102
RTVSPropertyOp50
 70
     1
102
RTVSPropertyOp51
 70
     0
102
RTVSPropertyOp52
 70
     0
102
RTVSPropertyOp53
 70
     1
102
RTVSPropertyOp54
 70
     1
102
RTVSPropertyOp55
 70
     1
102
RTVSPropertyOp56
 70
     1
102
RTVSPropertyOp57
 70
     1
102
RTVSPropertyOp58
 70
     1
102
RTVSPropertyOp59
 70
     1
102
RTVSPropertyOp60
 70
     1
102
RTVSPropertyOp61
 70
     1
102
RTVSPropertyOp62
 70
     1
  0
XRECORD
  5
2705
102
{ACAD_REACTORS
330
2704
102
}
330
2704
100
AcDbXrecord
280
     1
102
RTVSPost2010Prop28
280
     0
102
RTVSPost2010PropOp28
 70
     1
102
RTVSPost2010Prop29
280
     1
102
RTVSPost2010PropOp29
 70
     1
102
RTVSPost2010Prop30
280
     1
102
RTVSPost2010PropOp30
 70
     1
102
RTVSPost2010Prop31
280
     0
102
RTVSPost2010PropOp31
 70
     1
102
RTVSPost2010Prop32
280
     0
102
RTVSPost2010PropOp32
 70
     1
102
RTVSPost2010Prop33
280
     0
102
RTVSPost2010PropOp33
 70
     1
102
RTVSPost2010Prop34
280
     0
102
RTVSPost2010PropOp34
 70
     1
102
RTVSPost2010Prop35
280
     0
102
RTVSPost2010PropOp35
 70
     1
102
RTVSPost2010Prop36
280
     0
102
RTVSPost2010PropOp36
 70
     1
102
RTVSPost2010Prop37
 90
       50
102
RTVSPost2010PropOp37
 70
     1
102
RTVSPost2010Prop38
140
0.0
102
RTVSPost2010PropOp38
 70
     1
102
RTVSPost2010Prop39
140
1.0
102
RTVSPost2010PropOp39
 70
     1
102
RTVSPost2010Prop40
 90
        0
102
RTVSPost2010PropOp40
 70
     1
102
RTVSPost2010Prop41ColorIndex
 90
       18
102
RTVSPost2010Prop41ColorRGB
 90
        0
102
RTVSPost2010PropOp41
 70
     1
102
RTVSPost2010Prop42
 90
       50
102
RTVSPost2010PropOp42
 70
     1
102
RTVSPost2010Prop43
 90
        3
102
RTVSPost2010PropOp43
 70
     1
102
RTVSPost2010Prop44ColorIndex
 90
        5
102
RTVSPost2010Prop44ColorRGB
 90
      255
102
RTVSPost2010PropOp44
 70
     1
102
RTVSPost2010Prop45
280
     0
102
RTVSPost2010PropOp45
 70
     1
102
RTVSPost2010Prop46
 90
       50
102
RTVSPost2010PropOp46
 70
     1
102
RTVSPost2010Prop47
 90
       50
102
RTVSPost2010PropOp47
 70
     1
102
RTVSPost2010Prop48
 90
       50
102
RTVSPost2010PropOp48
 70
     1
102
RTVSPost2010Prop49
280
     0
102
RTVSPost2010PropOp49
 70
     1
102
RTVSPost2010Prop50
 90
       50
102
RTVSPost2010PropOp50
 70
     1
102
RTVSPost2010Prop51ColorIndex
 90
      256
102
RTVSPost2010Prop51ColorRGB
 90
-16777216
102
RTVSPost2010PropOp51
 70
     0
102
RTVSPost2010Prop52
140
1.0
102
RTVSPost2010PropOp52
 70
     0
102
RTVSPost2010Prop53
 90
        2
102
RTVSPost2010PropOp53
 70
     1
102
RTVSPost2010Prop54
  1
strokes_ogs.tif
102
RTVSPost2010PropOp54
 70
     1
102
RTVSPost2010Prop55
280
     0
102
RTVSPost2010PropOp55
 70
     1
102
RTVSPost2010Prop56
140
1.0
102
RTVSPost2010PropOp56
 70
     1
102
RTVSPost2010Prop57
140
1.0
102
RTVSPost2010PropOp57
 70
     1
102
RTVSPropertyOp0
 70
     1
102
RTVSPropertyOp1
 70
     1
102
RTVSPropertyOp2
 70
     1
102
RTVSPropertyOp3
 70
     1
102
RTVSPropertyOp4
 70
     1
102
RTVSPropertyOp5
 70
     1
102
RTVSPropertyOp6
 70
     1
102
RTVSPropertyOp7
 70
     1
102
RTVSPropertyOp8
 70
     1
102
RTVSPropertyOp9
 70
     1
102
RTVSPropertyOp10
 70
     1
102
RTVSPropertyOp11
 70
     1
102
RTVSPropertyOp12
 70
     1
102
RTVSPropertyOp13
 70
     1
102
RTVSPropertyOp14
 70
     1
102
RTVSPropertyOp15
 70
     1
102
RTVSPropertyOp16
 70
     1
102
RTVSPropertyOp17
 70
     1
102
RTVSPropertyOp18
 70
     1
102
RTVSPropertyOp19
 70
     1
102
RTVSPropertyOp20
 70
     1
102
RTVSPropertyOp21
 70
     1
102
RTVSPropertyOp22
 70
     1
102
RTVSPropertyOp23
 70
     1
102
RTVSPropertyOp24
 70
     1
102
RTVSPropertyOp25
 70
     1
102
RTVSPropertyOp26
 70
     1
102
RTVSPropertyOp27
 70
     1
102
RTVSPropertyOp28
 70
     1
102
RTVSPropertyOp29
 70
     1
102
RTVSPropertyOp30
 70
     1
102
RTVSPropertyOp31
 70
     1
102
RTVSPropertyOp32
 70
     1
102
RTVSPropertyOp33
 70
     1
102
RTVSPropertyOp34
 70
     1
102
RTVSPropertyOp35
 70
     1
102
RTVSPropertyOp36
 70
     1
102
RTVSPropertyOp37
 70
     1
102
RTVSPropertyOp38
 70
     1
102
RTVSPropertyOp39
 70
     1
102
RTVSPropertyOp40
 70
     1
102
RTVSPropertyOp41
 70
     1
102
RTVSPropertyOp42
 70
     1
102
RTVSPropertyOp43
 70
     1
102
RTVSPropertyOp44
 70
     1
102
RTVSPropertyOp45
 70
     1
102
RTVSPropertyOp46
 70
     1
102
RTVSPropertyOp47
 70
     1
102
RTVSPropertyOp48
 70
     1
102
RTVSPropertyOp49
 70
     1
102
RTVSPropertyOp50
 70
     1
102
RTVSPropertyOp51
 70
     0
102
RTVSPropertyOp52
 70
     0
102
RTVSPropertyOp53
 70
     1
102
RTVSPropertyOp54
 70
     1
102
RTVSPropertyOp55
 70
     1
102
RTVSPropertyOp56
 70
     1
102
RTVSPropertyOp57
 70
     1
102
RTVSPropertyOp58
 70
     1
102
RTVSPropertyOp59
 70
     1
102
RTVSPropertyOp60
 70
     1
102
RTVSPropertyOp61
 70
     1
102
RTVSPropertyOp62
 70
     1
  0
XRECORD
  5
2711
102
{ACAD_REACTORS
330
2710
102
}
330
2710
100
AcDbXrecord
280
     1
102
RTVSPost2010Prop28
280
     0
102
RTVSPost2010PropOp28
 70
     0
102
RTVSPost2010Prop29
280
     1
102
RTVSPost2010PropOp29
 70
     0
102
RTVSPost2010Prop30
280
     1
102
RTVSPost2010PropOp30
 70
     0
102
RTVSPost2010Prop31
280
     0
102
RTVSPost2010PropOp31
 70
     0
102
RTVSPost2010Prop32
280
     0
102
RTVSPost2010PropOp32
 70
     0
102
RTVSPost2010Prop33
280
     0
102
RTVSPost2010PropOp33
 70
     0
102
RTVSPost2010Prop34
280
     0
102
RTVSPost2010PropOp34
 70
     0
102
RTVSPost2010Prop35
280
     0
102
RTVSPost2010PropOp35
 70
     0
102
RTVSPost2010Prop36
280
     0
102
RTVSPost2010PropOp36
 70
     0
102
RTVSPost2010Prop37
 90
       50
102
RTVSPost2010PropOp37
 70
     0
102
RTVSPost2010Prop38
140
0.0
102
RTVSPost2010PropOp38
 70
     0
102
RTVSPost2010Prop39
140
1.0
102
RTVSPost2010PropOp39
 70
     0
102
RTVSPost2010Prop40
 90
        0
102
RTVSPost2010PropOp40
 70
     0
102
RTVSPost2010Prop41ColorIndex
 90
       18
102
RTVSPost2010Prop41ColorRGB
 90
        0
102
RTVSPost2010PropOp41
 70
     0
102
RTVSPost2010Prop42
 90
       50
102
RTVSPost2010PropOp42
 70
     0
102
RTVSPost2010Prop43
 90
        3
102
RTVSPost2010PropOp43
 70
     0
102
RTVSPost2010Prop44ColorIndex
 90
        5
102
RTVSPost2010Prop44ColorRGB
 90
      255
102
RTVSPost2010PropOp44
 70
     0
102
RTVSPost2010Prop45
280
     0
102
RTVSPost2010PropOp45
 70
     0
102
RTVSPost2010Prop46
 90
       50
102
RTVSPost2010PropOp46
 70
     0
102
RTVSPost2010Prop47
 90
       50
102
RTVSPost2010PropOp47
 70
     0
102
RTVSPost2010Prop48
 90
       50
102
RTVSPost2010PropOp48
 70
     0
102
RTVSPost2010Prop49
280
     0
102
RTVSPost2010PropOp49
 70
     0
102
RTVSPost2010Prop50
 90
       50
102
RTVSPost2010PropOp50
 70
     0
102
RTVSPost2010Prop51ColorIndex
 90
      256
102
RTVSPost2010Prop51ColorRGB
 90
-16777216
102
RTVSPost2010PropOp51
 70
     0
102
RTVSPost2010Prop52
140
1.0
102
RTVSPost2010PropOp52
 70
     0
102
RTVSPost2010Prop53
 90
        2
102
RTVSPost2010PropOp53
 70
     0
102
RTVSPost2010Prop54
  1
strokes_ogs.tif
102
RTVSPost2010PropOp54
 70
     0
102
RTVSPost2010Prop55
280
     0
102
RTVSPost2010PropOp55
 70
     0
102
RTVSPost2010Prop56
140
1.0
102
RTVSPost2010PropOp56
 70
     0
102
RTVSPost2010Prop57
140
1.0
102
RTVSPost2010PropOp57
 70
     0
102
RTVSPropertyOp0
 70
     0
102
RTVSPropertyOp1
 70
     0
102
RTVSPropertyOp2
 70
     0
102
RTVSPropertyOp3
 70
     0
102
RTVSPropertyOp4
 70
     0
102
RTVSPropertyOp5
 70
     0
102
RTVSPropertyOp6
 70
     0
102
RTVSPropertyOp7
 70
     0
102
RTVSPropertyOp8
 70
     0
102
RTVSPropertyOp9
 70
     0
102
RTVSPropertyOp10
 70
     0
102
RTVSPropertyOp11
 70
     0
102
RTVSPropertyOp12
 70
     0
102
RTVSPropertyOp13
 70
     0
102
RTVSPropertyOp14
 70
     2
102
RTVSPropertyOp15
 70
     0
102
RTVSPropertyOp16
 70
     0
102
RTVSPropertyOp17
 70
     0
102
RTVSPropertyOp18
 70
     0
102
RTVSPropertyOp19
 70
     0
102
RTVSPropertyOp20
 70
     0
102
RTVSPropertyOp21
 70
     0
102
RTVSPropertyOp22
 70
     0
102
RTVSPropertyOp23
 70
     0
102
RTVSPropertyOp24
 70
     0
102
RTVSPropertyOp25
 70
     0
102
RTVSPropertyOp26
 70
     0
102
RTVSPropertyOp27
 70
     0
102
RTVSPropertyOp28
 70
     0
102
RTVSPropertyOp29
 70
     0
102
RTVSPropertyOp30
 70
     0
102
RTVSPropertyOp31
 70
     0
102
RTVSPropertyOp32
 70
     0
102
RTVSPropertyOp33
 70
     0
102
RTVSPropertyOp34
 70
     0
102
RTVSPropertyOp35
 70
     0
102
RTVSPropertyOp36
 70
     0
102
RTVSPropertyOp37
 70
     0
102
RTVSPropertyOp38
 70
     0
102
RTVSPropertyOp39
 70
     0
102
RTVSPropertyOp40
 70
     0
102
RTVSPropertyOp41
 70
     0
102
RTVSPropertyOp42
 70
     0
102
RTVSPropertyOp43
 70
     0
102
RTVSPropertyOp44
 70
     0
102
RTVSPropertyOp45
 70
     0
102
RTVSPropertyOp46
 70
     0
102
RTVSPropertyOp47
 70
     0
102
RTVSPropertyOp48
 70
     0
102
RTVSPropertyOp49
 70
     0
102
RTVSPropertyOp50
 70
     0
102
RTVSPropertyOp51
 70
     0
102
RTVSPropertyOp52
 70
     0
102
RTVSPropertyOp53
 70
     0
102
RTVSPropertyOp54
 70
     0
102
RTVSPropertyOp55
 70
     0
102
RTVSPropertyOp56
 70
     0
102
RTVSPropertyOp57
 70
     0
102
RTVSPropertyOp58
 70
     0
102
RTVSPropertyOp59
 70
     0
102
RTVSPropertyOp60
 70
     0
102
RTVSPropertyOp61
 70
     0
102
RTVSPropertyOp62
 70
     0
  0
XRECORD
  5
26FD
102
{ACAD_REACTORS
330
26FC
102
}
330
26FC
100
AcDbXrecord
280
     1
102
RTVSPost2010Prop28
280
     0
102
RTVSPost2010PropOp28
 70
     1
102
RTVSPost2010Prop29
280
     1
102
RTVSPost2010PropOp29
 70
     1
102
RTVSPost2010Prop30
280
     1
102
RTVSPost2010PropOp30
 70
     1
102
RTVSPost2010Prop31
280
     0
102
RTVSPost2010PropOp31
 70
     1
102
RTVSPost2010Prop32
280
     0
102
RTVSPost2010PropOp32
 70
     1
102
RTVSPost2010Prop33
280
     0
102
RTVSPost2010PropOp33
 70
     1
102
RTVSPost2010Prop34
280
     0
102
RTVSPost2010PropOp34
 70
     1
102
RTVSPost2010Prop35
280
     0
102
RTVSPost2010PropOp35
 70
     1
102
RTVSPost2010Prop36
280
     0
102
RTVSPost2010PropOp36
 70
     1
102
RTVSPost2010Prop37
 90
       50
102
RTVSPost2010PropOp37
 70
     1
102
RTVSPost2010Prop38
140
0.0
102
RTVSPost2010PropOp38
 70
     1
102
RTVSPost2010Prop39
140
1.0
102
RTVSPost2010PropOp39
 70
     1
102
RTVSPost2010Prop40
 90
        0
102
RTVSPost2010PropOp40
 70
     1
102
RTVSPost2010Prop41ColorIndex
 90
       18
102
RTVSPost2010Prop41ColorRGB
 90
        0
102
RTVSPost2010PropOp41
 70
     1
102
RTVSPost2010Prop42
 90
       50
102
RTVSPost2010PropOp42
 70
     1
102
RTVSPost2010Prop43
 90
        3
102
RTVSPost2010PropOp43
 70
     1
102
RTVSPost2010Prop44ColorIndex
 90
        5
102
RTVSPost2010Prop44ColorRGB
 90
      255
102
RTVSPost2010PropOp44
 70
     1
102
RTVSPost2010Prop45
280
     0
102
RTVSPost2010PropOp45
 70
     1
102
RTVSPost2010Prop46
 90
       50
102
RTVSPost2010PropOp46
 70
     1
102
RTVSPost2010Prop47
 90
       50
102
RTVSPost2010PropOp47
 70
     1
102
RTVSPost2010Prop48
 90
       50
102
RTVSPost2010PropOp48
 70
     1
102
RTVSPost2010Prop49
280
     0
102
RTVSPost2010PropOp49
 70
     1
102
RTVSPost2010Prop50
 90
       50
102
RTVSPost2010PropOp50
 70
     1
102
RTVSPost2010Prop51ColorIndex
 90
      256
102
RTVSPost2010Prop51ColorRGB
 90
-16777216
102
RTVSPost2010PropOp51
 70
     0
102
RTVSPost2010Prop52
140
1.0
102
RTVSPost2010PropOp52
 70
     0
102
RTVSPost2010Prop53
 90
        2
102
RTVSPost2010PropOp53
 70
     1
102
RTVSPost2010Prop54
  1
strokes_ogs.tif
102
RTVSPost2010PropOp54
 70
     1
102
RTVSPost2010Prop55
280
     0
102
RTVSPost2010PropOp55
 70
     1
102
RTVSPost2010Prop56
140
1.0
102
RTVSPost2010PropOp56
 70
     1
102
RTVSPost2010Prop57
140
1.0
102
RTVSPost2010PropOp57
 70
     1
102
RTVSPropertyOp0
 70
     1
102
RTVSPropertyOp1
 70
     1
102
RTVSPropertyOp2
 70
     1
102
RTVSPropertyOp3
 70
     1
102
RTVSPropertyOp4
 70
     1
102
RTVSPropertyOp5
 70
     1
102
RTVSPropertyOp6
 70
     1
102
RTVSPropertyOp7
 70
     1
102
RTVSPropertyOp8
 70
     1
102
RTVSPropertyOp9
 70
     1
102
RTVSPropertyOp10
 70
     1
102
RTVSPropertyOp11
 70
     1
102
RTVSPropertyOp12
 70
     1
102
RTVSPropertyOp13
 70
     1
102
RTVSPropertyOp14
 70
     1
102
RTVSPropertyOp15
 70
     1
102
RTVSPropertyOp16
 70
     1
102
RTVSPropertyOp17
 70
     1
102
RTVSPropertyOp18
 70
     1
102
RTVSPropertyOp19
 70
     1
102
RTVSPropertyOp20
 70
     1
102
RTVSPropertyOp21
 70
     1
102
RTVSPropertyOp22
 70
     1
102
RTVSPropertyOp23
 70
     1
102
RTVSPropertyOp24
 70
     1
102
RTVSPropertyOp25
 70
     1
102
RTVSPropertyOp26
 70
     1
102
RTVSPropertyOp27
 70
     1
102
RTVSPropertyOp28
 70
     1
102
RTVSPropertyOp29
 70
     1
102
RTVSPropertyOp30
 70
     1
102
RTVSPropertyOp31
 70
     1
102
RTVSPropertyOp32
 70
     1
102
RTVSPropertyOp33
 70
     1
102
RTVSPropertyOp34
 70
     1
102
RTVSPropertyOp35
 70
     1
102
RTVSPropertyOp36
 70
     1
102
RTVSPropertyOp37
 70
     1
102
RTVSPropertyOp38
 70
     1
102
RTVSPropertyOp39
 70
     1
102
RTVSPropertyOp40
 70
     1
102
RTVSPropertyOp41
 70
     1
102
RTVSPropertyOp42
 70
     1
102
RTVSPropertyOp43
 70
     1
102
RTVSPropertyOp44
 70
     1
102
RTVSPropertyOp45
 70
     1
102
RTVSPropertyOp46
 70
     1
102
RTVSPropertyOp47
 70
     1
102
RTVSPropertyOp48
 70
     1
102
RTVSPropertyOp49
 70
     1
102
RTVSPropertyOp50
 70
     1
102
RTVSPropertyOp51
 70
     0
102
RTVSPropertyOp52
 70
     0
102
RTVSPropertyOp53
 70
     1
102
RTVSPropertyOp54
 70
     1
102
RTVSPropertyOp55
 70
     1
102
RTVSPropertyOp56
 70
     1
102
RTVSPropertyOp57
 70
     1
102
RTVSPropertyOp58
 70
     1
102
RTVSPropertyOp59
 70
     1
102
RTVSPropertyOp60
 70
     1
102
RTVSPropertyOp61
 70
     1
102
RTVSPropertyOp62
 70
     1
  0
XRECORD
  5
2713
102
{ACAD_REACTORS
330
2712
102
}
330
2712
100
AcDbXrecord
280
     1
102
RTVSPost2010Prop28
280
     0
102
RTVSPost2010PropOp28
 70
     0
102
RTVSPost2010Prop29
280
     1
102
RTVSPost2010PropOp29
 70
     0
102
RTVSPost2010Prop30
280
     1
102
RTVSPost2010PropOp30
 70
     0
102
RTVSPost2010Prop31
280
     0
102
RTVSPost2010PropOp31
 70
     0
102
RTVSPost2010Prop32
280
     0
102
RTVSPost2010PropOp32
 70
     0
102
RTVSPost2010Prop33
280
     0
102
RTVSPost2010PropOp33
 70
     0
102
RTVSPost2010Prop34
280
     0
102
RTVSPost2010PropOp34
 70
     0
102
RTVSPost2010Prop35
280
     0
102
RTVSPost2010PropOp35
 70
     0
102
RTVSPost2010Prop36
280
     0
102
RTVSPost2010PropOp36
 70
     0
102
RTVSPost2010Prop37
 90
       50
102
RTVSPost2010PropOp37
 70
     0
102
RTVSPost2010Prop38
140
0.0
102
RTVSPost2010PropOp38
 70
     0
102
RTVSPost2010Prop39
140
1.0
102
RTVSPost2010PropOp39
 70
     0
102
RTVSPost2010Prop40
 90
        0
102
RTVSPost2010PropOp40
 70
     0
102
RTVSPost2010Prop41ColorIndex
 90
       18
102
RTVSPost2010Prop41ColorRGB
 90
        0
102
RTVSPost2010PropOp41
 70
     0
102
RTVSPost2010Prop42
 90
       50
102
RTVSPost2010PropOp42
 70
     0
102
RTVSPost2010Prop43
 90
        3
102
RTVSPost2010PropOp43
 70
     0
102
RTVSPost2010Prop44ColorIndex
 90
        5
102
RTVSPost2010Prop44ColorRGB
 90
      255
102
RTVSPost2010PropOp44
 70
     0
102
RTVSPost2010Prop45
280
     0
102
RTVSPost2010PropOp45
 70
     0
102
RTVSPost2010Prop46
 90
       50
102
RTVSPost2010PropOp46
 70
     0
102
RTVSPost2010Prop47
 90
       50
102
RTVSPost2010PropOp47
 70
     0
102
RTVSPost2010Prop48
 90
       50
102
RTVSPost2010PropOp48
 70
     0
102
RTVSPost2010Prop49
280
     0
102
RTVSPost2010PropOp49
 70
     0
102
RTVSPost2010Prop50
 90
       50
102
RTVSPost2010PropOp50
 70
     0
102
RTVSPost2010Prop51ColorIndex
 90
      256
102
RTVSPost2010Prop51ColorRGB
 90
-16777216
102
RTVSPost2010PropOp51
 70
     0
102
RTVSPost2010Prop52
140
1.0
102
RTVSPost2010PropOp52
 70
     0
102
RTVSPost2010Prop53
 90
        2
102
RTVSPost2010PropOp53
 70
     0
102
RTVSPost2010Prop54
  1
strokes_ogs.tif
102
RTVSPost2010PropOp54
 70
     0
102
RTVSPost2010Prop55
280
     0
102
RTVSPost2010PropOp55
 70
     0
102
RTVSPost2010Prop56
140
1.0
102
RTVSPost2010PropOp56
 70
     0
102
RTVSPost2010Prop57
140
1.0
102
RTVSPost2010PropOp57
 70
     0
102
RTVSPropertyOp0
 70
     0
102
RTVSPropertyOp1
 70
     0
102
RTVSPropertyOp2
 70
     0
102
RTVSPropertyOp3
 70
     0
102
RTVSPropertyOp4
 70
     0
102
RTVSPropertyOp5
 70
     0
102
RTVSPropertyOp6
 70
     0
102
RTVSPropertyOp7
 70
     0
102
RTVSPropertyOp8
 70
     0
102
RTVSPropertyOp9
 70
     0
102
RTVSPropertyOp10
 70
     0
102
RTVSPropertyOp11
 70
     0
102
RTVSPropertyOp12
 70
     0
102
RTVSPropertyOp13
 70
     0
102
RTVSPropertyOp14
 70
     2
102
RTVSPropertyOp15
 70
     0
102
RTVSPropertyOp16
 70
     0
102
RTVSPropertyOp17
 70
     0
102
RTVSPropertyOp18
 70
     0
102
RTVSPropertyOp19
 70
     0
102
RTVSPropertyOp20
 70
     0
102
RTVSPropertyOp21
 70
     0
102
RTVSPropertyOp22
 70
     0
102
RTVSPropertyOp23
 70
     0
102
RTVSPropertyOp24
 70
     0
102
RTVSPropertyOp25
 70
     0
102
RTVSPropertyOp26
 70
     0
102
RTVSPropertyOp27
 70
     0
102
RTVSPropertyOp28
 70
     0
102
RTVSPropertyOp29
 70
     0
102
RTVSPropertyOp30
 70
     0
102
RTVSPropertyOp31
 70
     0
102
RTVSPropertyOp32
 70
     0
102
RTVSPropertyOp33
 70
     0
102
RTVSPropertyOp34
 70
     0
102
RTVSPropertyOp35
 70
     0
102
RTVSPropertyOp36
 70
     0
102
RTVSPropertyOp37
 70
     0
102
RTVSPropertyOp38
 70
     0
102
RTVSPropertyOp39
 70
     0
102
RTVSPropertyOp40
 70
     0
102
RTVSPropertyOp41
 70
     0
102
RTVSPropertyOp42
 70
     0
102
RTVSPropertyOp43
 70
     0
102
RTVSPropertyOp44
 70
     0
102
RTVSPropertyOp45
 70
     0
102
RTVSPropertyOp46
 70
     0
102
RTVSPropertyOp47
 70
     0
102
RTVSPropertyOp48
 70
     0
102
RTVSPropertyOp49
 70
     0
102
RTVSPropertyOp50
 70
     0
102
RTVSPropertyOp51
 70
     0
102
RTVSPropertyOp52
 70
     0
102
RTVSPropertyOp53
 70
     0
102
RTVSPropertyOp54
 70
     0
102
RTVSPropertyOp55
 70
     0
102
RTVSPropertyOp56
 70
     0
102
RTVSPropertyOp57
 70
     0
102
RTVSPropertyOp58
 70
     0
102
RTVSPropertyOp59
 70
     0
102
RTVSPropertyOp60
 70
     0
102
RTVSPropertyOp61
 70
     0
102
RTVSPropertyOp62
 70
     0
  0
XRECORD
  5
26F5
102
{ACAD_REACTORS
330
26F4
102
}
330
26F4
100
AcDbXrecord
280
     1
102
RTVSPost2010Prop28
280
     0
102
RTVSPost2010PropOp28
 70
     1
102
RTVSPost2010Prop29
280
     1
102
RTVSPost2010PropOp29
 70
     1
102
RTVSPost2010Prop30
280
     1
102
RTVSPost2010PropOp30
 70
     1
102
RTVSPost2010Prop31
280
     0
102
RTVSPost2010PropOp31
 70
     1
102
RTVSPost2010Prop32
280
     0
102
RTVSPost2010PropOp32
 70
     1
102
RTVSPost2010Prop33
280
     0
102
RTVSPost2010PropOp33
 70
     1
102
RTVSPost2010Prop34
280
     0
102
RTVSPost2010PropOp34
 70
     1
102
RTVSPost2010Prop35
280
     0
102
RTVSPost2010PropOp35
 70
     1
102
RTVSPost2010Prop36
280
     0
102
RTVSPost2010PropOp36
 70
     1
102
RTVSPost2010Prop37
 90
       50
102
RTVSPost2010PropOp37
 70
     1
102
RTVSPost2010Prop38
140
0.0
102
RTVSPost2010PropOp38
 70
     1
102
RTVSPost2010Prop39
140
1.0
102
RTVSPost2010PropOp39
 70
     1
102
RTVSPost2010Prop40
 90
        0
102
RTVSPost2010PropOp40
 70
     1
102
RTVSPost2010Prop41ColorIndex
 90
       18
102
RTVSPost2010Prop41ColorRGB
 90
        0
102
RTVSPost2010PropOp41
 70
     1
102
RTVSPost2010Prop42
 90
       50
102
RTVSPost2010PropOp42
 70
     1
102
RTVSPost2010Prop43
 90
        3
102
RTVSPost2010PropOp43
 70
     1
102
RTVSPost2010Prop44ColorIndex
 90
        5
102
RTVSPost2010Prop44ColorRGB
 90
      255
102
RTVSPost2010PropOp44
 70
     1
102
RTVSPost2010Prop45
280
     0
102
RTVSPost2010PropOp45
 70
     1
102
RTVSPost2010Prop46
 90
       50
102
RTVSPost2010PropOp46
 70
     1
102
RTVSPost2010Prop47
 90
       50
102
RTVSPost2010PropOp47
 70
     1
102
RTVSPost2010Prop48
 90
       50
102
RTVSPost2010PropOp48
 70
     1
102
RTVSPost2010Prop49
280
     0
102
RTVSPost2010PropOp49
 70
     1
102
RTVSPost2010Prop50
 90
       50
102
RTVSPost2010PropOp50
 70
     1
102
RTVSPost2010Prop51ColorIndex
 90
      256
102
RTVSPost2010Prop51ColorRGB
 90
-16777216
102
RTVSPost2010PropOp51
 70
     0
102
RTVSPost2010Prop52
140
1.0
102
RTVSPost2010PropOp52
 70
     0
102
RTVSPost2010Prop53
 90
        2
102
RTVSPost2010PropOp53
 70
     1
102
RTVSPost2010Prop54
  1
strokes_ogs.tif
102
RTVSPost2010PropOp54
 70
     1
102
RTVSPost2010Prop55
280
     0
102
RTVSPost2010PropOp55
 70
     1
102
RTVSPost2010Prop56
140
1.0
102
RTVSPost2010PropOp56
 70
     1
102
RTVSPost2010Prop57
140
1.0
102
RTVSPost2010PropOp57
 70
     1
102
RTVSPropertyOp0
 70
     1
102
RTVSPropertyOp1
 70
     1
102
RTVSPropertyOp2
 70
     1
102
RTVSPropertyOp3
 70
     1
102
RTVSPropertyOp4
 70
     1
102
RTVSPropertyOp5
 70
     1
102
RTVSPropertyOp6
 70
     1
102
RTVSPropertyOp7
 70
     1
102
RTVSPropertyOp8
 70
     1
102
RTVSPropertyOp9
 70
     1
102
RTVSPropertyOp10
 70
     1
102
RTVSPropertyOp11
 70
     1
102
RTVSPropertyOp12
 70
     1
102
RTVSPropertyOp13
 70
     1
102
RTVSPropertyOp14
 70
     1
102
RTVSPropertyOp15
 70
     1
102
RTVSPropertyOp16
 70
     1
102
RTVSPropertyOp17
 70
     1
102
RTVSPropertyOp18
 70
     1
102
RTVSPropertyOp19
 70
     1
102
RTVSPropertyOp20
 70
     1
102
RTVSPropertyOp21
 70
     1
102
RTVSPropertyOp22
 70
     1
102
RTVSPropertyOp23
 70
     1
102
RTVSPropertyOp24
 70
     1
102
RTVSPropertyOp25
 70
     1
102
RTVSPropertyOp26
 70
     1
102
RTVSPropertyOp27
 70
     1
102
RTVSPropertyOp28
 70
     1
102
RTVSPropertyOp29
 70
     1
102
RTVSPropertyOp30
 70
     1
102
RTVSPropertyOp31
 70
     1
102
RTVSPropertyOp32
 70
     1
102
RTVSPropertyOp33
 70
     1
102
RTVSPropertyOp34
 70
     1
102
RTVSPropertyOp35
 70
     1
102
RTVSPropertyOp36
 70
     1
102
RTVSPropertyOp37
 70
     1
102
RTVSPropertyOp38
 70
     1
102
RTVSPropertyOp39
 70
     1
102
RTVSPropertyOp40
 70
     1
102
RTVSPropertyOp41
 70
     1
102
RTVSPropertyOp42
 70
     1
102
RTVSPropertyOp43
 70
     1
102
RTVSPropertyOp44
 70
     1
102
RTVSPropertyOp45
 70
     1
102
RTVSPropertyOp46
 70
     1
102
RTVSPropertyOp47
 70
     1
102
RTVSPropertyOp48
 70
     1
102
RTVSPropertyOp49
 70
     1
102
RTVSPropertyOp50
 70
     1
102
RTVSPropertyOp51
 70
     0
102
RTVSPropertyOp52
 70
     0
102
RTVSPropertyOp53
 70
     1
102
RTVSPropertyOp54
 70
     1
102
RTVSPropertyOp55
 70
     1
102
RTVSPropertyOp56
 70
     1
102
RTVSPropertyOp57
 70
     1
102
RTVSPropertyOp58
 70
     1
102
RTVSPropertyOp59
 70
     1
102
RTVSPropertyOp60
 70
     1
102
RTVSPropertyOp61
 70
     1
102
RTVSPropertyOp62
 70
     1
  0
XRECORD
  5
270F
102
{ACAD_REACTORS
330
270E
102
}
330
270E
100
AcDbXrecord
280
     1
102
RTVSPost2010Prop28
280
     0
102
RTVSPost2010PropOp28
 70
     1
102
RTVSPost2010Prop29
280
     1
102
RTVSPost2010PropOp29
 70
     1
102
RTVSPost2010Prop30
280
     1
102
RTVSPost2010PropOp30
 70
     1
102
RTVSPost2010Prop31
280
     0
102
RTVSPost2010PropOp31
 70
     1
102
RTVSPost2010Prop32
280
     0
102
RTVSPost2010PropOp32
 70
     1
102
RTVSPost2010Prop33
280
     0
102
RTVSPost2010PropOp33
 70
     1
102
RTVSPost2010Prop34
280
     0
102
RTVSPost2010PropOp34
 70
     1
102
RTVSPost2010Prop35
280
     0
102
RTVSPost2010PropOp35
 70
     1
102
RTVSPost2010Prop36
280
     0
102
RTVSPost2010PropOp36
 70
     1
102
RTVSPost2010Prop37
 90
       50
102
RTVSPost2010PropOp37
 70
     1
102
RTVSPost2010Prop38
140
0.0
102
RTVSPost2010PropOp38
 70
     1
102
RTVSPost2010Prop39
140
1.0
102
RTVSPost2010PropOp39
 70
     1
102
RTVSPost2010Prop40
 90
        0
102
RTVSPost2010PropOp40
 70
     1
102
RTVSPost2010Prop41ColorIndex
 90
       18
102
RTVSPost2010Prop41ColorRGB
 90
        0
102
RTVSPost2010PropOp41
 70
     1
102
RTVSPost2010Prop42
 90
       50
102
RTVSPost2010PropOp42
 70
     1
102
RTVSPost2010Prop43
 90
        3
102
RTVSPost2010PropOp43
 70
     1
102
RTVSPost2010Prop44ColorIndex
 90
        5
102
RTVSPost2010Prop44ColorRGB
 90
      255
102
RTVSPost2010PropOp44
 70
     1
102
RTVSPost2010Prop45
280
     0
102
RTVSPost2010PropOp45
 70
     1
102
RTVSPost2010Prop46
 90
       50
102
RTVSPost2010PropOp46
 70
     1
102
RTVSPost2010Prop47
 90
       50
102
RTVSPost2010PropOp47
 70
     1
102
RTVSPost2010Prop48
 90
       50
102
RTVSPost2010PropOp48
 70
     1
102
RTVSPost2010Prop49
280
     0
102
RTVSPost2010PropOp49
 70
     1
102
RTVSPost2010Prop50
 90
       50
102
RTVSPost2010PropOp50
 70
     1
102
RTVSPost2010Prop51ColorIndex
 90
      256
102
RTVSPost2010Prop51ColorRGB
 90
-16777216
102
RTVSPost2010PropOp51
 70
     0
102
RTVSPost2010Prop52
140
1.0
102
RTVSPost2010PropOp52
 70
     0
102
RTVSPost2010Prop53
 90
        2
102
RTVSPost2010PropOp53
 70
     1
102
RTVSPost2010Prop54
  1
strokes_ogs.tif
102
RTVSPost2010PropOp54
 70
     1
102
RTVSPost2010Prop55
280
     0
102
RTVSPost2010PropOp55
 70
     1
102
RTVSPost2010Prop56
140
1.0
102
RTVSPost2010PropOp56
 70
     1
102
RTVSPost2010Prop57
140
1.0
102
RTVSPost2010PropOp57
 70
     1
102
RTVSPropertyOp0
 70
     1
102
RTVSPropertyOp1
 70
     1
102
RTVSPropertyOp2
 70
     1
102
RTVSPropertyOp3
 70
     1
102
RTVSPropertyOp4
 70
     1
102
RTVSPropertyOp5
 70
     1
102
RTVSPropertyOp6
 70
     1
102
RTVSPropertyOp7
 70
     1
102
RTVSPropertyOp8
 70
     1
102
RTVSPropertyOp9
 70
     1
102
RTVSPropertyOp10
 70
     1
102
RTVSPropertyOp11
 70
     1
102
RTVSPropertyOp12
 70
     1
102
RTVSPropertyOp13
 70
     1
102
RTVSPropertyOp14
 70
     1
102
RTVSPropertyOp15
 70
     1
102
RTVSPropertyOp16
 70
     1
102
RTVSPropertyOp17
 70
     1
102
RTVSPropertyOp18
 70
     1
102
RTVSPropertyOp19
 70
     1
102
RTVSPropertyOp20
 70
     1
102
RTVSPropertyOp21
 70
     1
102
RTVSPropertyOp22
 70
     1
102
RTVSPropertyOp23
 70
     1
102
RTVSPropertyOp24
 70
     1
102
RTVSPropertyOp25
 70
     1
102
RTVSPropertyOp26
 70
     1
102
RTVSPropertyOp27
 70
     1
102
RTVSPropertyOp28
 70
     1
102
RTVSPropertyOp29
 70
     1
102
RTVSPropertyOp30
 70
     1
102
RTVSPropertyOp31
 70
     1
102
RTVSPropertyOp32
 70
     1
102
RTVSPropertyOp33
 70
     1
102
RTVSPropertyOp34
 70
     1
102
RTVSPropertyOp35
 70
     1
102
RTVSPropertyOp36
 70
     1
102
RTVSPropertyOp37
 70
     1
102
RTVSPropertyOp38
 70
     1
102
RTVSPropertyOp39
 70
     1
102
RTVSPropertyOp40
 70
     1
102
RTVSPropertyOp41
 70
     1
102
RTVSPropertyOp42
 70
     1
102
RTVSPropertyOp43
 70
     1
102
RTVSPropertyOp44
 70
     1
102
RTVSPropertyOp45
 70
     1
102
RTVSPropertyOp46
 70
     1
102
RTVSPropertyOp47
 70
     1
102
RTVSPropertyOp48
 70
     1
102
RTVSPropertyOp49
 70
     1
102
RTVSPropertyOp50
 70
     1
102
RTVSPropertyOp51
 70
     0
102
RTVSPropertyOp52
 70
     0
102
RTVSPropertyOp53
 70
     1
102
RTVSPropertyOp54
 70
     1
102
RTVSPropertyOp55
 70
     1
102
RTVSPropertyOp56
 70
     1
102
RTVSPropertyOp57
 70
     1
102
RTVSPropertyOp58
 70
     1
102
RTVSPropertyOp59
 70
     1
102
RTVSPropertyOp60
 70
     1
102
RTVSPropertyOp61
 70
     1
102
RTVSPropertyOp62
 70
     1
  0
XRECORD
  5
270D
102
{ACAD_REACTORS
330
270C
102
}
330
270C
100
AcDbXrecord
280
     1
102
RTVSPost2010Prop28
280
     0
102
RTVSPost2010PropOp28
 70
     1
102
RTVSPost2010Prop29
280
     1
102
RTVSPost2010PropOp29
 70
     1
102
RTVSPost2010Prop30
280
     1
102
RTVSPost2010PropOp30
 70
     1
102
RTVSPost2010Prop31
280
     0
102
RTVSPost2010PropOp31
 70
     1
102
RTVSPost2010Prop32
280
     0
102
RTVSPost2010PropOp32
 70
     1
102
RTVSPost2010Prop33
280
     0
102
RTVSPost2010PropOp33
 70
     1
102
RTVSPost2010Prop34
280
     0
102
RTVSPost2010PropOp34
 70
     1
102
RTVSPost2010Prop35
280
     0
102
RTVSPost2010PropOp35
 70
     1
102
RTVSPost2010Prop36
280
     0
102
RTVSPost2010PropOp36
 70
     1
102
RTVSPost2010Prop37
 90
       50
102
RTVSPost2010PropOp37
 70
     1
102
RTVSPost2010Prop38
140
0.0
102
RTVSPost2010PropOp38
 70
     1
102
RTVSPost2010Prop39
140
1.0
102
RTVSPost2010PropOp39
 70
     1
102
RTVSPost2010Prop40
 90
        0
102
RTVSPost2010PropOp40
 70
     1
102
RTVSPost2010Prop41ColorIndex
 90
       18
102
RTVSPost2010Prop41ColorRGB
 90
        0
102
RTVSPost2010PropOp41
 70
     1
102
RTVSPost2010Prop42
 90
       50
102
RTVSPost2010PropOp42
 70
     1
102
RTVSPost2010Prop43
 90
        3
102
RTVSPost2010PropOp43
 70
     1
102
RTVSPost2010Prop44ColorIndex
 90
        5
102
RTVSPost2010Prop44ColorRGB
 90
      255
102
RTVSPost2010PropOp44
 70
     1
102
RTVSPost2010Prop45
280
     0
102
RTVSPost2010PropOp45
 70
     1
102
RTVSPost2010Prop46
 90
       50
102
RTVSPost2010PropOp46
 70
     1
102
RTVSPost2010Prop47
 90
       50
102
RTVSPost2010PropOp47
 70
     1
102
RTVSPost2010Prop48
 90
       50
102
RTVSPost2010PropOp48
 70
     1
102
RTVSPost2010Prop49
280
     0
102
RTVSPost2010PropOp49
 70
     1
102
RTVSPost2010Prop50
 90
       50
102
RTVSPost2010PropOp50
 70
     1
102
RTVSPost2010Prop51ColorIndex
 90
      256
102
RTVSPost2010Prop51ColorRGB
 90
-16777216
102
RTVSPost2010PropOp51
 70
     0
102
RTVSPost2010Prop52
140
1.0
102
RTVSPost2010PropOp52
 70
     0
102
RTVSPost2010Prop53
 90
        2
102
RTVSPost2010PropOp53
 70
     1
102
RTVSPost2010Prop54
  1
strokes_ogs.tif
102
RTVSPost2010PropOp54
 70
     1
102
RTVSPost2010Prop55
280
     0
102
RTVSPost2010PropOp55
 70
     1
102
RTVSPost2010Prop56
140
1.0
102
RTVSPost2010PropOp56
 70
     1
102
RTVSPost2010Prop57
140
1.0
102
RTVSPost2010PropOp57
 70
     1
102
RTVSPropertyOp0
 70
     1
102
RTVSPropertyOp1
 70
     1
102
RTVSPropertyOp2
 70
     1
102
RTVSPropertyOp3
 70
     1
102
RTVSPropertyOp4
 70
     1
102
RTVSPropertyOp5
 70
     1
102
RTVSPropertyOp6
 70
     1
102
RTVSPropertyOp7
 70
     1
102
RTVSPropertyOp8
 70
     1
102
RTVSPropertyOp9
 70
     1
102
RTVSPropertyOp10
 70
     1
102
RTVSPropertyOp11
 70
     1
102
RTVSPropertyOp12
 70
     1
102
RTVSPropertyOp13
 70
     1
102
RTVSPropertyOp14
 70
     1
102
RTVSPropertyOp15
 70
     1
102
RTVSPropertyOp16
 70
     1
102
RTVSPropertyOp17
 70
     1
102
RTVSPropertyOp18
 70
     1
102
RTVSPropertyOp19
 70
     1
102
RTVSPropertyOp20
 70
     1
102
RTVSPropertyOp21
 70
     1
102
RTVSPropertyOp22
 70
     1
102
RTVSPropertyOp23
 70
     1
102
RTVSPropertyOp24
 70
     1
102
RTVSPropertyOp25
 70
     1
102
RTVSPropertyOp26
 70
     1
102
RTVSPropertyOp27
 70
     1
102
RTVSPropertyOp28
 70
     1
102
RTVSPropertyOp29
 70
     1
102
RTVSPropertyOp30
 70
     1
102
RTVSPropertyOp31
 70
     1
102
RTVSPropertyOp32
 70
     1
102
RTVSPropertyOp33
 70
     1
102
RTVSPropertyOp34
 70
     1
102
RTVSPropertyOp35
 70
     1
102
RTVSPropertyOp36
 70
     1
102
RTVSPropertyOp37
 70
     1
102
RTVSPropertyOp38
 70
     1
102
RTVSPropertyOp39
 70
     1
102
RTVSPropertyOp40
 70
     1
102
RTVSPropertyOp41
 70
     1
102
RTVSPropertyOp42
 70
     1
102
RTVSPropertyOp43
 70
     1
102
RTVSPropertyOp44
 70
     1
102
RTVSPropertyOp45
 70
     1
102
RTVSPropertyOp46
 70
     1
102
RTVSPropertyOp47
 70
     1
102
RTVSPropertyOp48
 70
     1
102
RTVSPropertyOp49
 70
     1
102
RTVSPropertyOp50
 70
     1
102
RTVSPropertyOp51
 70
     0
102
RTVSPropertyOp52
 70
     0
102
RTVSPropertyOp53
 70
     1
102
RTVSPropertyOp54
 70
     1
102
RTVSPropertyOp55
 70
     1
102
RTVSPropertyOp56
 70
     1
102
RTVSPropertyOp57
 70
     1
102
RTVSPropertyOp58
 70
     1
102
RTVSPropertyOp59
 70
     1
102
RTVSPropertyOp60
 70
     1
102
RTVSPropertyOp61
 70
     1
102
RTVSPropertyOp62
 70
     1
  0
XRECORD
  5
2707
102
{ACAD_REACTORS
330
2706
102
}
330
2706
100
AcDbXrecord
280
     1
102
RTVSPost2010Prop28
280
     0
102
RTVSPost2010PropOp28
 70
     1
102
RTVSPost2010Prop29
280
     1
102
RTVSPost2010PropOp29
 70
     1
102
RTVSPost2010Prop30
280
     1
102
RTVSPost2010PropOp30
 70
     1
102
RTVSPost2010Prop31
280
     0
102
RTVSPost2010PropOp31
 70
     1
102
RTVSPost2010Prop32
280
     0
102
RTVSPost2010PropOp32
 70
     1
102
RTVSPost2010Prop33
280
     0
102
RTVSPost2010PropOp33
 70
     1
102
RTVSPost2010Prop34
280
     0
102
RTVSPost2010PropOp34
 70
     1
102
RTVSPost2010Prop35
280
     0
102
RTVSPost2010PropOp35
 70
     1
102
RTVSPost2010Prop36
280
     0
102
RTVSPost2010PropOp36
 70
     1
102
RTVSPost2010Prop37
 90
       50
102
RTVSPost2010PropOp37
 70
     1
102
RTVSPost2010Prop38
140
0.0
102
RTVSPost2010PropOp38
 70
     1
102
RTVSPost2010Prop39
140
1.0
102
RTVSPost2010PropOp39
 70
     1
102
RTVSPost2010Prop40
 90
        0
102
RTVSPost2010PropOp40
 70
     1
102
RTVSPost2010Prop41ColorIndex
 90
       18
102
RTVSPost2010Prop41ColorRGB
 90
        0
102
RTVSPost2010PropOp41
 70
     1
102
RTVSPost2010Prop42
 90
       50
102
RTVSPost2010PropOp42
 70
     1
102
RTVSPost2010Prop43
 90
        3
102
RTVSPost2010PropOp43
 70
     1
102
RTVSPost2010Prop44ColorIndex
 90
        5
102
RTVSPost2010Prop44ColorRGB
 90
      255
102
RTVSPost2010PropOp44
 70
     1
102
RTVSPost2010Prop45
280
     0
102
RTVSPost2010PropOp45
 70
     1
102
RTVSPost2010Prop46
 90
       50
102
RTVSPost2010PropOp46
 70
     1
102
RTVSPost2010Prop47
 90
       50
102
RTVSPost2010PropOp47
 70
     1
102
RTVSPost2010Prop48
 90
       50
102
RTVSPost2010PropOp48
 70
     1
102
RTVSPost2010Prop49
280
     0
102
RTVSPost2010PropOp49
 70
     1
102
RTVSPost2010Prop50
 90
       50
102
RTVSPost2010PropOp50
 70
     1
102
RTVSPost2010Prop51ColorIndex
 90
      256
102
RTVSPost2010Prop51ColorRGB
 90
-16777216
102
RTVSPost2010PropOp51
 70
     0
102
RTVSPost2010Prop52
140
1.0
102
RTVSPost2010PropOp52
 70
     0
102
RTVSPost2010Prop53
 90
        2
102
RTVSPost2010PropOp53
 70
     1
102
RTVSPost2010Prop54
  1
strokes_ogs.tif
102
RTVSPost2010PropOp54
 70
     1
102
RTVSPost2010Prop55
280
     0
102
RTVSPost2010PropOp55
 70
     1
102
RTVSPost2010Prop56
140
1.0
102
RTVSPost2010PropOp56
 70
     1
102
RTVSPost2010Prop57
140
1.0
102
RTVSPost2010PropOp57
 70
     1
102
RTVSPropertyOp0
 70
     1
102
RTVSPropertyOp1
 70
     1
102
RTVSPropertyOp2
 70
     1
102
RTVSPropertyOp3
 70
     1
102
RTVSPropertyOp4
 70
     1
102
RTVSPropertyOp5
 70
     1
102
RTVSPropertyOp6
 70
     1
102
RTVSPropertyOp7
 70
     1
102
RTVSPropertyOp8
 70
     1
102
RTVSPropertyOp9
 70
     1
102
RTVSPropertyOp10
 70
     1
102
RTVSPropertyOp11
 70
     1
102
RTVSPropertyOp12
 70
     1
102
RTVSPropertyOp13
 70
     1
102
RTVSPropertyOp14
 70
     1
102
RTVSPropertyOp15
 70
     1
102
RTVSPropertyOp16
 70
     1
102
RTVSPropertyOp17
 70
     1
102
RTVSPropertyOp18
 70
     1
102
RTVSPropertyOp19
 70
     1
102
RTVSPropertyOp20
 70
     1
102
RTVSPropertyOp21
 70
     1
102
RTVSPropertyOp22
 70
     1
102
RTVSPropertyOp23
 70
     1
102
RTVSPropertyOp24
 70
     1
102
RTVSPropertyOp25
 70
     1
102
RTVSPropertyOp26
 70
     1
102
RTVSPropertyOp27
 70
     1
102
RTVSPropertyOp28
 70
     1
102
RTVSPropertyOp29
 70
     1
102
RTVSPropertyOp30
 70
     1
102
RTVSPropertyOp31
 70
     1
102
RTVSPropertyOp32
 70
     1
102
RTVSPropertyOp33
 70
     1
102
RTVSPropertyOp34
 70
     1
102
RTVSPropertyOp35
 70
     1
102
RTVSPropertyOp36
 70
     1
102
RTVSPropertyOp37
 70
     1
102
RTVSPropertyOp38
 70
     1
102
RTVSPropertyOp39
 70
     1
102
RTVSPropertyOp40
 70
     1
102
RTVSPropertyOp41
 70
     1
102
RTVSPropertyOp42
 70
     1
102
RTVSPropertyOp43
 70
     1
102
RTVSPropertyOp44
 70
     1
102
RTVSPropertyOp45
 70
     1
102
RTVSPropertyOp46
 70
     1
102
RTVSPropertyOp47
 70
     1
102
RTVSPropertyOp48
 70
     1
102
RTVSPropertyOp49
 70
     1
102
RTVSPropertyOp50
 70
     1
102
RTVSPropertyOp51
 70
     0
102
RTVSPropertyOp52
 70
     0
102
RTVSPropertyOp53
 70
     1
102
RTVSPropertyOp54
 70
     1
102
RTVSPropertyOp55
 70
     1
102
RTVSPropertyOp56
 70
     1
102
RTVSPropertyOp57
 70
     1
102
RTVSPropertyOp58
 70
     1
102
RTVSPropertyOp59
 70
     1
102
RTVSPropertyOp60
 70
     1
102
RTVSPropertyOp61
 70
     1
102
RTVSPropertyOp62
 70
     1
  0
XRECORD
  5
2709
102
{ACAD_REACTORS
330
2708
102
}
330
2708
100
AcDbXrecord
280
     1
102
RTVSPost2010Prop28
280
     0
102
RTVSPost2010PropOp28
 70
     1
102
RTVSPost2010Prop29
280
     1
102
RTVSPost2010PropOp29
 70
     1
102
RTVSPost2010Prop30
280
     1
102
RTVSPost2010PropOp30
 70
     1
102
RTVSPost2010Prop31
280
     0
102
RTVSPost2010PropOp31
 70
     1
102
RTVSPost2010Prop32
280
     0
102
RTVSPost2010PropOp32
 70
     1
102
RTVSPost2010Prop33
280
     0
102
RTVSPost2010PropOp33
 70
     1
102
RTVSPost2010Prop34
280
     0
102
RTVSPost2010PropOp34
 70
     1
102
RTVSPost2010Prop35
280
     0
102
RTVSPost2010PropOp35
 70
     1
102
RTVSPost2010Prop36
280
     0
102
RTVSPost2010PropOp36
 70
     1
102
RTVSPost2010Prop37
 90
       50
102
RTVSPost2010PropOp37
 70
     1
102
RTVSPost2010Prop38
140
0.0
102
RTVSPost2010PropOp38
 70
     1
102
RTVSPost2010Prop39
140
1.0
102
RTVSPost2010PropOp39
 70
     1
102
RTVSPost2010Prop40
 90
        0
102
RTVSPost2010PropOp40
 70
     1
102
RTVSPost2010Prop41ColorIndex
 90
       18
102
RTVSPost2010Prop41ColorRGB
 90
        0
102
RTVSPost2010PropOp41
 70
     1
102
RTVSPost2010Prop42
 90
       50
102
RTVSPost2010PropOp42
 70
     1
102
RTVSPost2010Prop43
 90
        3
102
RTVSPost2010PropOp43
 70
     1
102
RTVSPost2010Prop44ColorIndex
 90
        5
102
RTVSPost2010Prop44ColorRGB
 90
      255
102
RTVSPost2010PropOp44
 70
     1
102
RTVSPost2010Prop45
280
     0
102
RTVSPost2010PropOp45
 70
     1
102
RTVSPost2010Prop46
 90
       50
102
RTVSPost2010PropOp46
 70
     1
102
RTVSPost2010Prop47
 90
       50
102
RTVSPost2010PropOp47
 70
     1
102
RTVSPost2010Prop48
 90
       50
102
RTVSPost2010PropOp48
 70
     1
102
RTVSPost2010Prop49
280
     0
102
RTVSPost2010PropOp49
 70
     1
102
RTVSPost2010Prop50
 90
       50
102
RTVSPost2010PropOp50
 70
     1
102
RTVSPost2010Prop51ColorIndex
 90
      256
102
RTVSPost2010Prop51ColorRGB
 90
-16777216
102
RTVSPost2010PropOp51
 70
     0
102
RTVSPost2010Prop52
140
1.0
102
RTVSPost2010PropOp52
 70
     0
102
RTVSPost2010Prop53
 90
        2
102
RTVSPost2010PropOp53
 70
     1
102
RTVSPost2010Prop54
  1
strokes_ogs.tif
102
RTVSPost2010PropOp54
 70
     1
102
RTVSPost2010Prop55
280
     0
102
RTVSPost2010PropOp55
 70
     1
102
RTVSPost2010Prop56
140
1.0
102
RTVSPost2010PropOp56
 70
     1
102
RTVSPost2010Prop57
140
1.0
102
RTVSPost2010PropOp57
 70
     1
102
RTVSPropertyOp0
 70
     1
102
RTVSPropertyOp1
 70
     1
102
RTVSPropertyOp2
 70
     1
102
RTVSPropertyOp3
 70
     1
102
RTVSPropertyOp4
 70
     1
102
RTVSPropertyOp5
 70
     1
102
RTVSPropertyOp6
 70
     1
102
RTVSPropertyOp7
 70
     1
102
RTVSPropertyOp8
 70
     1
102
RTVSPropertyOp9
 70
     1
102
RTVSPropertyOp10
 70
     1
102
RTVSPropertyOp11
 70
     1
102
RTVSPropertyOp12
 70
     1
102
RTVSPropertyOp13
 70
     1
102
RTVSPropertyOp14
 70
     1
102
RTVSPropertyOp15
 70
     1
102
RTVSPropertyOp16
 70
     1
102
RTVSPropertyOp17
 70
     1
102
RTVSPropertyOp18
 70
     1
102
RTVSPropertyOp19
 70
     1
102
RTVSPropertyOp20
 70
     1
102
RTVSPropertyOp21
 70
     1
102
RTVSPropertyOp22
 70
     1
102
RTVSPropertyOp23
 70
     1
102
RTVSPropertyOp24
 70
     1
102
RTVSPropertyOp25
 70
     1
102
RTVSPropertyOp26
 70
     1
102
RTVSPropertyOp27
 70
     1
102
RTVSPropertyOp28
 70
     1
102
RTVSPropertyOp29
 70
     1
102
RTVSPropertyOp30
 70
     1
102
RTVSPropertyOp31
 70
     1
102
RTVSPropertyOp32
 70
     1
102
RTVSPropertyOp33
 70
     1
102
RTVSPropertyOp34
 70
     1
102
RTVSPropertyOp35
 70
     1
102
RTVSPropertyOp36
 70
     1
102
RTVSPropertyOp37
 70
     1
102
RTVSPropertyOp38
 70
     1
102
RTVSPropertyOp39
 70
     1
102
RTVSPropertyOp40
 70
     1
102
RTVSPropertyOp41
 70
     1
102
RTVSPropertyOp42
 70
     1
102
RTVSPropertyOp43
 70
     1
102
RTVSPropertyOp44
 70
     1
102
RTVSPropertyOp45
 70
     1
102
RTVSPropertyOp46
 70
     1
102
RTVSPropertyOp47
 70
     1
102
RTVSPropertyOp48
 70
     1
102
RTVSPropertyOp49
 70
     1
102
RTVSPropertyOp50
 70
     1
102
RTVSPropertyOp51
 70
     0
102
RTVSPropertyOp52
 70
     0
102
RTVSPropertyOp53
 70
     1
102
RTVSPropertyOp54
 70
     1
102
RTVSPropertyOp55
 70
     1
102
RTVSPropertyOp56
 70
     1
102
RTVSPropertyOp57
 70
     1
102
RTVSPropertyOp58
 70
     1
102
RTVSPropertyOp59
 70
     1
102
RTVSPropertyOp60
 70
     1
102
RTVSPropertyOp61
 70
     1
102
RTVSPropertyOp62
 70
     1
  0
XRECORD
  5
26FB
102
{ACAD_REACTORS
330
26FA
102
}
330
26FA
100
AcDbXrecord
280
     1
102
RTVSPost2010Prop28
280
     0
102
RTVSPost2010PropOp28
 70
     1
102
RTVSPost2010Prop29
280
     1
102
RTVSPost2010PropOp29
 70
     1
102
RTVSPost2010Prop30
280
     1
102
RTVSPost2010PropOp30
 70
     1
102
RTVSPost2010Prop31
280
     0
102
RTVSPost2010PropOp31
 70
     1
102
RTVSPost2010Prop32
280
     0
102
RTVSPost2010PropOp32
 70
     1
102
RTVSPost2010Prop33
280
     0
102
RTVSPost2010PropOp33
 70
     1
102
RTVSPost2010Prop34
280
     0
102
RTVSPost2010PropOp34
 70
     1
102
RTVSPost2010Prop35
280
     0
102
RTVSPost2010PropOp35
 70
     1
102
RTVSPost2010Prop36
280
     0
102
RTVSPost2010PropOp36
 70
     1
102
RTVSPost2010Prop37
 90
       50
102
RTVSPost2010PropOp37
 70
     1
102
RTVSPost2010Prop38
140
0.0
102
RTVSPost2010PropOp38
 70
     1
102
RTVSPost2010Prop39
140
1.0
102
RTVSPost2010PropOp39
 70
     1
102
RTVSPost2010Prop40
 90
        0
102
RTVSPost2010PropOp40
 70
     1
102
RTVSPost2010Prop41ColorIndex
 90
       18
102
RTVSPost2010Prop41ColorRGB
 90
        0
102
RTVSPost2010PropOp41
 70
     1
102
RTVSPost2010Prop42
 90
       50
102
RTVSPost2010PropOp42
 70
     1
102
RTVSPost2010Prop43
 90
        3
102
RTVSPost2010PropOp43
 70
     1
102
RTVSPost2010Prop44ColorIndex
 90
        5
102
RTVSPost2010Prop44ColorRGB
 90
      255
102
RTVSPost2010PropOp44
 70
     1
102
RTVSPost2010Prop45
280
     0
102
RTVSPost2010PropOp45
 70
     1
102
RTVSPost2010Prop46
 90
       50
102
RTVSPost2010PropOp46
 70
     1
102
RTVSPost2010Prop47
 90
       50
102
RTVSPost2010PropOp47
 70
     1
102
RTVSPost2010Prop48
 90
       50
102
RTVSPost2010PropOp48
 70
     1
102
RTVSPost2010Prop49
280
     0
102
RTVSPost2010PropOp49
 70
     1
102
RTVSPost2010Prop50
 90
       50
102
RTVSPost2010PropOp50
 70
     1
102
RTVSPost2010Prop51ColorIndex
 90
      256
102
RTVSPost2010Prop51ColorRGB
 90
-16777216
102
RTVSPost2010PropOp51
 70
     0
102
RTVSPost2010Prop52
140
1.0
102
RTVSPost2010PropOp52
 70
     0
102
RTVSPost2010Prop53
 90
        2
102
RTVSPost2010PropOp53
 70
     1
102
RTVSPost2010Prop54
  1
strokes_ogs.tif
102
RTVSPost2010PropOp54
 70
     1
102
RTVSPost2010Prop55
280
     0
102
RTVSPost2010PropOp55
 70
     1
102
RTVSPost2010Prop56
140
1.0
102
RTVSPost2010PropOp56
 70
     1
102
RTVSPost2010Prop57
140
1.0
102
RTVSPost2010PropOp57
 70
     1
102
RTVSPropertyOp0
 70
     1
102
RTVSPropertyOp1
 70
     1
102
RTVSPropertyOp2
 70
     1
102
RTVSPropertyOp3
 70
     1
102
RTVSPropertyOp4
 70
     1
102
RTVSPropertyOp5
 70
     1
102
RTVSPropertyOp6
 70
     1
102
RTVSPropertyOp7
 70
     1
102
RTVSPropertyOp8
 70
     1
102
RTVSPropertyOp9
 70
     1
102
RTVSPropertyOp10
 70
     1
102
RTVSPropertyOp11
 70
     1
102
RTVSPropertyOp12
 70
     1
102
RTVSPropertyOp13
 70
     1
102
RTVSPropertyOp14
 70
     1
102
RTVSPropertyOp15
 70
     1
102
RTVSPropertyOp16
 70
     1
102
RTVSPropertyOp17
 70
     1
102
RTVSPropertyOp18
 70
     1
102
RTVSPropertyOp19
 70
     1
102
RTVSPropertyOp20
 70
     1
102
RTVSPropertyOp21
 70
     1
102
RTVSPropertyOp22
 70
     1
102
RTVSPropertyOp23
 70
     1
102
RTVSPropertyOp24
 70
     1
102
RTVSPropertyOp25
 70
     1
102
RTVSPropertyOp26
 70
     1
102
RTVSPropertyOp27
 70
     1
102
RTVSPropertyOp28
 70
     1
102
RTVSPropertyOp29
 70
     1
102
RTVSPropertyOp30
 70
     1
102
RTVSPropertyOp31
 70
     1
102
RTVSPropertyOp32
 70
     1
102
RTVSPropertyOp33
 70
     1
102
RTVSPropertyOp34
 70
     1
102
RTVSPropertyOp35
 70
     1
102
RTVSPropertyOp36
 70
     1
102
RTVSPropertyOp37
 70
     1
102
RTVSPropertyOp38
 70
     1
102
RTVSPropertyOp39
 70
     1
102
RTVSPropertyOp40
 70
     1
102
RTVSPropertyOp41
 70
     1
102
RTVSPropertyOp42
 70
     1
102
RTVSPropertyOp43
 70
     1
102
RTVSPropertyOp44
 70
     1
102
RTVSPropertyOp45
 70
     1
102
RTVSPropertyOp46
 70
     1
102
RTVSPropertyOp47
 70
     1
102
RTVSPropertyOp48
 70
     1
102
RTVSPropertyOp49
 70
     1
102
RTVSPropertyOp50
 70
     1
102
RTVSPropertyOp51
 70
     0
102
RTVSPropertyOp52
 70
     0
102
RTVSPropertyOp53
 70
     1
102
RTVSPropertyOp54
 70
     1
102
RTVSPropertyOp55
 70
     1
102
RTVSPropertyOp56
 70
     1
102
RTVSPropertyOp57
 70
     1
102
RTVSPropertyOp58
 70
     1
102
RTVSPropertyOp59
 70
     1
102
RTVSPropertyOp60
 70
     1
102
RTVSPropertyOp61
 70
     1
102
RTVSPropertyOp62
 70
     1
  0
XRECORD
  5
2703
102
{ACAD_REACTORS
330
2702
102
}
330
2702
100
AcDbXrecord
280
     1
102
RTVSPost2010Prop28
280
     0
102
RTVSPost2010PropOp28
 70
     1
102
RTVSPost2010Prop29
280
     1
102
RTVSPost2010PropOp29
 70
     1
102
RTVSPost2010Prop30
280
     1
102
RTVSPost2010PropOp30
 70
     1
102
RTVSPost2010Prop31
280
     0
102
RTVSPost2010PropOp31
 70
     1
102
RTVSPost2010Prop32
280
     0
102
RTVSPost2010PropOp32
 70
     1
102
RTVSPost2010Prop33
280
     0
102
RTVSPost2010PropOp33
 70
     1
102
RTVSPost2010Prop34
280
     0
102
RTVSPost2010PropOp34
 70
     1
102
RTVSPost2010Prop35
280
     0
102
RTVSPost2010PropOp35
 70
     1
102
RTVSPost2010Prop36
280
     0
102
RTVSPost2010PropOp36
 70
     1
102
RTVSPost2010Prop37
 90
       50
102
RTVSPost2010PropOp37
 70
     1
102
RTVSPost2010Prop38
140
0.0
102
RTVSPost2010PropOp38
 70
     1
102
RTVSPost2010Prop39
140
1.0
102
RTVSPost2010PropOp39
 70
     1
102
RTVSPost2010Prop40
 90
        0
102
RTVSPost2010PropOp40
 70
     1
102
RTVSPost2010Prop41ColorIndex
 90
       18
102
RTVSPost2010Prop41ColorRGB
 90
        0
102
RTVSPost2010PropOp41
 70
     1
102
RTVSPost2010Prop42
 90
       50
102
RTVSPost2010PropOp42
 70
     1
102
RTVSPost2010Prop43
 90
        3
102
RTVSPost2010PropOp43
 70
     1
102
RTVSPost2010Prop44ColorIndex
 90
        5
102
RTVSPost2010Prop44ColorRGB
 90
      255
102
RTVSPost2010PropOp44
 70
     1
102
RTVSPost2010Prop45
280
     0
102
RTVSPost2010PropOp45
 70
     1
102
RTVSPost2010Prop46
 90
       50
102
RTVSPost2010PropOp46
 70
     1
102
RTVSPost2010Prop47
 90
       50
102
RTVSPost2010PropOp47
 70
     1
102
RTVSPost2010Prop48
 90
       50
102
RTVSPost2010PropOp48
 70
     1
102
RTVSPost2010Prop49
280
     0
102
RTVSPost2010PropOp49
 70
     1
102
RTVSPost2010Prop50
 90
       50
102
RTVSPost2010PropOp50
 70
     1
102
RTVSPost2010Prop51ColorIndex
 90
      256
102
RTVSPost2010Prop51ColorRGB
 90
-16777216
102
RTVSPost2010PropOp51
 70
     0
102
RTVSPost2010Prop52
140
1.0
102
RTVSPost2010PropOp52
 70
     0
102
RTVSPost2010Prop53
 90
        2
102
RTVSPost2010PropOp53
 70
     1
102
RTVSPost2010Prop54
  1
strokes_ogs.tif
102
RTVSPost2010PropOp54
 70
     1
102
RTVSPost2010Prop55
280
     0
102
RTVSPost2010PropOp55
 70
     1
102
RTVSPost2010Prop56
140
1.0
102
RTVSPost2010PropOp56
 70
     1
102
RTVSPost2010Prop57
140
1.0
102
RTVSPost2010PropOp57
 70
     1
102
RTVSPropertyOp0
 70
     1
102
RTVSPropertyOp1
 70
     1
102
RTVSPropertyOp2
 70
     1
102
RTVSPropertyOp3
 70
     1
102
RTVSPropertyOp4
 70
     1
102
RTVSPropertyOp5
 70
     1
102
RTVSPropertyOp6
 70
     1
102
RTVSPropertyOp7
 70
     1
102
RTVSPropertyOp8
 70
     1
102
RTVSPropertyOp9
 70
     1
102
RTVSPropertyOp10
 70
     1
102
RTVSPropertyOp11
 70
     1
102
RTVSPropertyOp12
 70
     1
102
RTVSPropertyOp13
 70
     1
102
RTVSPropertyOp14
 70
     1
102
RTVSPropertyOp15
 70
     1
102
RTVSPropertyOp16
 70
     1
102
RTVSPropertyOp17
 70
     1
102
RTVSPropertyOp18
 70
     1
102
RTVSPropertyOp19
 70
     1
102
RTVSPropertyOp20
 70
     1
102
RTVSPropertyOp21
 70
     1
102
RTVSPropertyOp22
 70
     1
102
RTVSPropertyOp23
 70
     1
102
RTVSPropertyOp24
 70
     1
102
RTVSPropertyOp25
 70
     1
102
RTVSPropertyOp26
 70
     1
102
RTVSPropertyOp27
 70
     1
102
RTVSPropertyOp28
 70
     1
102
RTVSPropertyOp29
 70
     1
102
RTVSPropertyOp30
 70
     1
102
RTVSPropertyOp31
 70
     1
102
RTVSPropertyOp32
 70
     1
102
RTVSPropertyOp33
 70
     1
102
RTVSPropertyOp34
 70
     1
102
RTVSPropertyOp35
 70
     1
102
RTVSPropertyOp36
 70
     1
102
RTVSPropertyOp37
 70
     1
102
RTVSPropertyOp38
 70
     1
102
RTVSPropertyOp39
 70
     1
102
RTVSPropertyOp40
 70
     1
102
RTVSPropertyOp41
 70
     1
102
RTVSPropertyOp42
 70
     1
102
RTVSPropertyOp43
 70
     1
102
RTVSPropertyOp44
 70
     1
102
RTVSPropertyOp45
 70
     1
102
RTVSPropertyOp46
 70
     1
102
RTVSPropertyOp47
 70
     1
102
RTVSPropertyOp48
 70
     1
102
RTVSPropertyOp49
 70
     1
102
RTVSPropertyOp50
 70
     1
102
RTVSPropertyOp51
 70
     0
102
RTVSPropertyOp52
 70
     0
102
RTVSPropertyOp53
 70
     1
102
RTVSPropertyOp54
 70
     1
102
RTVSPropertyOp55
 70
     1
102
RTVSPropertyOp56
 70
     1
102
RTVSPropertyOp57
 70
     1
102
RTVSPropertyOp58
 70
     1
102
RTVSPropertyOp59
 70
     1
102
RTVSPropertyOp60
 70
     1
102
RTVSPropertyOp61
 70
     1
102
RTVSPropertyOp62
 70
     1
  0
XRECORD
  5
270B
102
{ACAD_REACTORS
330
270A
102
}
330
270A
100
AcDbXrecord
280
     1
102
RTVSPost2010Prop28
280
     0
102
RTVSPost2010PropOp28
 70
     1
102
RTVSPost2010Prop29
280
     1
102
RTVSPost2010PropOp29
 70
     1
102
RTVSPost2010Prop30
280
     1
102
RTVSPost2010PropOp30
 70
     1
102
RTVSPost2010Prop31
280
     0
102
RTVSPost2010PropOp31
 70
     1
102
RTVSPost2010Prop32
280
     0
102
RTVSPost2010PropOp32
 70
     1
102
RTVSPost2010Prop33
280
     0
102
RTVSPost2010PropOp33
 70
     1
102
RTVSPost2010Prop34
280
     0
102
RTVSPost2010PropOp34
 70
     1
102
RTVSPost2010Prop35
280
     0
102
RTVSPost2010PropOp35
 70
     1
102
RTVSPost2010Prop36
280
     0
102
RTVSPost2010PropOp36
 70
     1
102
RTVSPost2010Prop37
 90
       50
102
RTVSPost2010PropOp37
 70
     1
102
RTVSPost2010Prop38
140
0.0
102
RTVSPost2010PropOp38
 70
     1
102
RTVSPost2010Prop39
140
1.0
102
RTVSPost2010PropOp39
 70
     1
102
RTVSPost2010Prop40
 90
        0
102
RTVSPost2010PropOp40
 70
     1
102
RTVSPost2010Prop41ColorIndex
 90
       18
102
RTVSPost2010Prop41ColorRGB
 90
        0
102
RTVSPost2010PropOp41
 70
     1
102
RTVSPost2010Prop42
 90
       50
102
RTVSPost2010PropOp42
 70
     1
102
RTVSPost2010Prop43
 90
        3
102
RTVSPost2010PropOp43
 70
     1
102
RTVSPost2010Prop44ColorIndex
 90
        5
102
RTVSPost2010Prop44ColorRGB
 90
      255
102
RTVSPost2010PropOp44
 70
     1
102
RTVSPost2010Prop45
280
     0
102
RTVSPost2010PropOp45
 70
     1
102
RTVSPost2010Prop46
 90
       50
102
RTVSPost2010PropOp46
 70
     1
102
RTVSPost2010Prop47
 90
       50
102
RTVSPost2010PropOp47
 70
     1
102
RTVSPost2010Prop48
 90
       50
102
RTVSPost2010PropOp48
 70
     1
102
RTVSPost2010Prop49
280
     0
102
RTVSPost2010PropOp49
 70
     1
102
RTVSPost2010Prop50
 90
       50
102
RTVSPost2010PropOp50
 70
     1
102
RTVSPost2010Prop51ColorIndex
 90
      256
102
RTVSPost2010Prop51ColorRGB
 90
-16777216
102
RTVSPost2010PropOp51
 70
     0
102
RTVSPost2010Prop52
140
1.0
102
RTVSPost2010PropOp52
 70
     0
102
RTVSPost2010Prop53
 90
        2
102
RTVSPost2010PropOp53
 70
     1
102
RTVSPost2010Prop54
  1
strokes_ogs.tif
102
RTVSPost2010PropOp54
 70
     1
102
RTVSPost2010Prop55
280
     0
102
RTVSPost2010PropOp55
 70
     1
102
RTVSPost2010Prop56
140
1.0
102
RTVSPost2010PropOp56
 70
     1
102
RTVSPost2010Prop57
140
1.0
102
RTVSPost2010PropOp57
 70
     1
102
RTVSPropertyOp0
 70
     1
102
RTVSPropertyOp1
 70
     1
102
RTVSPropertyOp2
 70
     1
102
RTVSPropertyOp3
 70
     1
102
RTVSPropertyOp4
 70
     1
102
RTVSPropertyOp5
 70
     1
102
RTVSPropertyOp6
 70
     1
102
RTVSPropertyOp7
 70
     1
102
RTVSPropertyOp8
 70
     1
102
RTVSPropertyOp9
 70
     1
102
RTVSPropertyOp10
 70
     1
102
RTVSPropertyOp11
 70
     1
102
RTVSPropertyOp12
 70
     1
102
RTVSPropertyOp13
 70
     1
102
RTVSPropertyOp14
 70
     1
102
RTVSPropertyOp15
 70
     1
102
RTVSPropertyOp16
 70
     1
102
RTVSPropertyOp17
 70
     1
102
RTVSPropertyOp18
 70
     1
102
RTVSPropertyOp19
 70
     1
102
RTVSPropertyOp20
 70
     1
102
RTVSPropertyOp21
 70
     1
102
RTVSPropertyOp22
 70
     1
102
RTVSPropertyOp23
 70
     1
102
RTVSPropertyOp24
 70
     1
102
RTVSPropertyOp25
 70
     1
102
RTVSPropertyOp26
 70
     1
102
RTVSPropertyOp27
 70
     1
102
RTVSPropertyOp28
 70
     1
102
RTVSPropertyOp29
 70
     1
102
RTVSPropertyOp30
 70
     1
102
RTVSPropertyOp31
 70
     1
102
RTVSPropertyOp32
 70
     1
102
RTVSPropertyOp33
 70
     1
102
RTVSPropertyOp34
 70
     1
102
RTVSPropertyOp35
 70
     1
102
RTVSPropertyOp36
 70
     1
102
RTVSPropertyOp37
 70
     1
102
RTVSPropertyOp38
 70
     1
102
RTVSPropertyOp39
 70
     1
102
RTVSPropertyOp40
 70
     1
102
RTVSPropertyOp41
 70
     1
102
RTVSPropertyOp42
 70
     1
102
RTVSPropertyOp43
 70
     1
102
RTVSPropertyOp44
 70
     1
102
RTVSPropertyOp45
 70
     1
102
RTVSPropertyOp46
 70
     1
102
RTVSPropertyOp47
 70
     1
102
RTVSPropertyOp48
 70
     1
102
RTVSPropertyOp49
 70
     1
102
RTVSPropertyOp50
 70
     1
102
RTVSPropertyOp51
 70
     0
102
RTVSPropertyOp52
 70
     0
102
RTVSPropertyOp53
 70
     1
102
RTVSPropertyOp54
 70
     1
102
RTVSPropertyOp55
 70
     1
102
RTVSPropertyOp56
 70
     1
102
RTVSPropertyOp57
 70
     1
102
RTVSPropertyOp58
 70
     1
102
RTVSPropertyOp59
 70
     1
102
RTVSPropertyOp60
 70
     1
102
RTVSPropertyOp61
 70
     1
102
RTVSPropertyOp62
 70
     1
  0
FIELD
  5
24BC
102
{ACAD_REACTORS
330
24BB
102
}
330
24BB
100
AcDbField
  1
_text
  2
%<\_FldIdx 0>% %<\_FldIdx 1>%\P尺度 %<\_FldIdx 2>%
 90
        3
360
24BD
360
24BE
360
24BF
 97
        0
 91
       63
 92
        0
 94
        9
 95
        2
 96
        0
300

 93
        0
  7
ACFD_FIELD_VALUE
 93
        3
 90
        0
 94
        0
300

302

304
ACVALUE_END
301

 98
        0
  0
FIELD
  5
24CC
102
{ACAD_REACTORS
330
24CB
102
}
330
24CB
100
AcDbField
  1
_text
  2
Section %<\_FldIdx 0>%-%<\_FldIdx 1>% (%<\_FldIdx 2>%)
 90
        3
360
24CD
360
24CE
360
24CF
 97
        0
 91
       63
 92
        0
 94
        9
 95
        2
 96
        0
300

 93
        0
  7
ACFD_FIELD_VALUE
 93
        3
 90
        0
 94
        0
300

302

304
ACVALUE_END
301

 98
        0
  0
FIELD
  5
24A9
102
{ACAD_REACTORS
330
24A8
102
}
330
24A8
100
AcDbField
  1
_text
  2
%<\_FldIdx 0>% %<\_FldIdx 1>%-%<\_FldIdx 2>%
 90
        3
360
24AA
360
24AB
360
24AC
 97
        0
 91
       63
 92
        0
 94
        9
 95
        2
 96
        0
300

 93
        0
  7
ACFD_FIELD_VALUE
 93
        3
 90
        0
 94
        0
300

302

304
ACVALUE_END
301

 98
        0
  0
FIELD
  5
21EC
102
{ACAD_REACTORS
330
21EB
102
}
330
21EB
100
AcDbField
  1
_text
  2
%<\_FldIdx 0>%-%<\_FldIdx 1>%
 90
        2
360
21ED
360
21EE
 97
        0
 91
       63
 92
        0
 94
        9
 95
        2
 96
        0
300

 93
        0
  7
ACFD_FIELD_VALUE
 93
        3
 90
        0
 94
        0
300

302

304
ACVALUE_END
301

 98
        0
  0
FIELD
  5
21E6
102
{ACAD_REACTORS
330
21E5
102
}
330
21E5
100
AcDbField
  1
_text
  2
%<\_FldIdx 0>%-%<\_FldIdx 1>%
 90
        2
360
21E7
360
21E8
 97
        0
 91
       63
 92
        0
 94
        9
 95
        2
 96
        0
300

 93
        0
  7
ACFD_FIELD_VALUE
 93
        3
 90
        0
 94
        0
300

302

304
ACVALUE_END
301

 98
        0
  0
FIELD
  5
24B6
102
{ACAD_REACTORS
330
24B5
102
}
330
24B5
100
AcDbField
  1
_text
  2
%<\_FldIdx 0>%-%<\_FldIdx 1>%
 90
        2
360
24B7
360
24B8
 97
        0
 91
       63
 92
        0
 94
        9
 95
        2
 96
        0
300

 93
        0
  7
ACFD_FIELD_VALUE
 93
        3
 90
        0
 94
        0
300

302

304
ACVALUE_END
301

 98
        0
  0
FIELD
  5
24BD
330
24BC
100
AcDbField
  1
AcVar
  2
\AcVar ViewType \f "%tc1"
 90
        0
 97
        0
 91
       63
 92
        0
 94
       43
 95
        2
 96
        0
300

 93
        1
  6
Variable
 93
        2
 90
        4
  1
ViewType
 94
        0
300

302

304
ACVALUE_END
  7
ACFD_FIELD_VALUE
 93
        1
 90
        0
 94
        0
300
%tc1
302

304
ACVALUE_END
301
----
 98
        4
  0
FIELD
  5
24BE
330
24BC
100
AcDbField
  1
AcVar
  2
\AcVar ViewDetailId
 90
        0
 97
        0
 91
       63
 92
        0
 94
       43
 95
        2
 96
        0
300

 93
        1
  6
Variable
 93
        2
 90
        4
  1
ViewDetailId
 94
        0
300

302

304
ACVALUE_END
  7
ACFD_FIELD_VALUE
 93
        1
 90
        0
 94
        0
300

302

304
ACVALUE_END
301
----
 98
        4
  0
FIELD
  5
24BF
330
24BC
100
AcDbField
  1
AcVar
  2
\AcVar ViewScale \f "%sn"
 90
        0
 97
        0
 91
       63
 92
        0
 94
       43
 95
        2
 96
        0
300

 93
        1
  6
Variable
 93
        2
 90
        4
  1
ViewScale
 94
        0
300

302

304
ACVALUE_END
  7
ACFD_FIELD_VALUE
 93
        1
 90
        0
 94
        0
300
%sn
302

304
ACVALUE_END
301
----
 98
        4
  0
FIELD
  5
24CD
330
24CC
100
AcDbField
  1
AcVar
  2
\AcVar ViewDetailId
 90
        0
 97
        0
 91
       63
 92
        0
 94
       43
 95
        2
 96
        0
300

 93
        1
  6
Variable
 93
        2
 90
        4
  1
ViewDetailId
 94
        0
300

302

304
ACVALUE_END
  7
ACFD_FIELD_VALUE
 93
        1
 90
        0
 94
        0
300

302

304
ACVALUE_END
301
----
 98
        4
  0
FIELD
  5
24CE
330
24CC
100
AcDbField
  1
AcVar
  2
\AcVar ViewDetailId
 90
        0
 97
        0
 91
       63
 92
        0
 94
       43
 95
        2
 96
        0
300

 93
        1
  6
Variable
 93
        2
 90
        4
  1
ViewDetailId
 94
        0
300

302

304
ACVALUE_END
  7
ACFD_FIELD_VALUE
 93
        1
 90
        0
 94
        0
300

302

304
ACVALUE_END
301
----
 98
        4
  0
FIELD
  5
24CF
330
24CC
100
AcDbField
  1
AcVar
  2
\AcVar ViewScale \f "%sn"
 90
        0
 97
        0
 91
       63
 92
        0
 94
       43
 95
        2
 96
        0
300

 93
        1
  6
Variable
 93
        2
 90
        4
  1
ViewScale
 94
        0
300

302

304
ACVALUE_END
  7
ACFD_FIELD_VALUE
 93
        1
 90
        0
 94
        0
300
%sn
302

304
ACVALUE_END
301
----
 98
        4
  0
FIELD
  5
24AA
330
24A9
100
AcDbField
  1
AcVar
  2
\AcVar ViewType \f "%tc1"
 90
        0
 97
        0
 91
       63
 92
        0
 94
       43
 95
        2
 96
        0
300

 93
        1
  6
Variable
 93
        2
 90
        4
  1
ViewType
 94
        0
300

302

304
ACVALUE_END
  7
ACFD_FIELD_VALUE
 93
        1
 90
        0
 94
        0
300
%tc1
302

304
ACVALUE_END
301
----
 98
        4
  0
FIELD
  5
24AB
330
24A9
100
AcDbField
  1
AcVar
  2
\AcVar ViewSectionStartId
 90
        0
 97
        0
 91
       63
 92
        0
 94
       43
 95
        2
 96
        0
300

 93
        1
  6
Variable
 93
        2
 90
        4
  1
ViewSectionStartId
 94
        0
300

302

304
ACVALUE_END
  7
ACFD_FIELD_VALUE
 93
        1
 90
        0
 94
        0
300

302

304
ACVALUE_END
301
----
 98
        4
  0
FIELD
  5
24AC
330
24A9
100
AcDbField
  1
AcVar
  2
\AcVar ViewSectionEndId
 90
        0
 97
        0
 91
       63
 92
        0
 94
       43
 95
        2
 96
        0
300

 93
        1
  6
Variable
 93
        2
 90
        4
  1
ViewSectionEndId
 94
        0
300

302

304
ACVALUE_END
  7
ACFD_FIELD_VALUE
 93
        1
 90
        0
 94
        0
300

302

304
ACVALUE_END
301
----
 98
        4
  0
FIELD
  5
21ED
330
21EC
100
AcDbField
  1
AcVar
  2
\AcVar ViewSectionStartId
 90
        0
 97
        0
 91
       63
 92
        0
 94
       43
 95
        2
 96
        0
300

 93
        1
  6
Variable
 93
        2
 90
        4
  1
ViewSectionStartId
 94
        0
300

302

304
ACVALUE_END
  7
ACFD_FIELD_VALUE
 93
        1
 90
        0
 94
        0
300

302

304
ACVALUE_END
301
----
 98
        4
  0
FIELD
  5
21EE
330
21EC
100
AcDbField
  1
AcVar
  2
\AcVar ViewSectionEndId
 90
        0
 97
        0
 91
       63
 92
        0
 94
       43
 95
        2
 96
        0
300

 93
        1
  6
Variable
 93
        2
 90
        4
  1
ViewSectionEndId
 94
        0
300

302

304
ACVALUE_END
  7
ACFD_FIELD_VALUE
 93
        1
 90
        0
 94
        0
300

302

304
ACVALUE_END
301
----
 98
        4
  0
FIELD
  5
21E7
330
21E6
100
AcDbField
  1
AcVar
  2
\AcVar ViewSectionStartId
 90
        0
 97
        0
 91
       63
 92
        0
 94
       43
 95
        2
 96
        0
300

 93
        1
  6
Variable
 93
        2
 90
        4
  1
ViewSectionStartId
 94
        0
300

302

304
ACVALUE_END
  7
ACFD_FIELD_VALUE
 93
        1
 90
        0
 94
        0
300

302

304
ACVALUE_END
301
----
 98
        4
  0
FIELD
  5
21E8
330
21E6
100
AcDbField
  1
AcVar
  2
\AcVar ViewSectionEndId
 90
        0
 97
        0
 91
       63
 92
        0
 94
       43
 95
        2
 96
        0
300

 93
        1
  6
Variable
 93
        2
 90
        4
  1
ViewSectionEndId
 94
        0
300

302

304
ACVALUE_END
  7
ACFD_FIELD_VALUE
 93
        1
 90
        0
 94
        0
300

302

304
ACVALUE_END
301
----
 98
        4
  0
FIELD
  5
24B7
330
24B6
100
AcDbField
  1
AcVar
  2
\AcVar ViewSectionStartId
 90
        0
 97
        0
 91
       63
 92
        0
 94
       43
 95
        2
 96
        0
300

 93
        1
  6
Variable
 93
        2
 90
        4
  1
ViewSectionStartId
 94
        0
300

302

304
ACVALUE_END
  7
ACFD_FIELD_VALUE
 93
        1
 90
        0
 94
        0
300

302

304
ACVALUE_END
301
----
 98
        4
  0
FIELD
  5
24B8
330
24B6
100
AcDbField
  1
AcVar
  2
\AcVar ViewSectionEndId
 90
        0
 97
        0
 91
       63
 92
        0
 94
       43
 95
        2
 96
        0
300

 93
        1
  6
Variable
 93
        2
 90
        4
  1
ViewSectionEndId
 94
        0
300

302

304
ACVALUE_END
  7
ACFD_FIELD_VALUE
 93
        1
 90
        0
 94
        0
300

302

304
ACVALUE_END
301
----
 98
        4
  0
ENDSEC
  0
EOF
